  0
SECTION
  2
HEADER
  9
$ACADVER
  1
AC1015
  9
$ACADMAINTVER
 70
     6
  9
$DWGCODEPAGE
  3
ANSI_1254
  9
$INSBASE
 10
0.0
 20
0.0
 30
0.0
  9
$EXTMIN
 10
0.0
 20
0.0
 30
0.0
  9
$EXTMAX
 10
279.4
 20
215.9
 30
0.0
  9
$LIMMIN
 10
0.0
 20
0.0
  9
$LIMMAX
 10
279.4
 20
215.9
  9
$ORTHOMODE
 70
     0
  9
$REGENMODE
 70
     1
  9
$FILLMODE
 70
     1
  9
$QTEXTMODE
 70
     0
  9
$MIRRTEXT
 70
     1
  9
$LTSCALE
 40
1.0
  9
$ATTMODE
 70
     1
  9
$TEXTSIZE
 40
3.5
  9
$TRACEWID
 40
1.0
  9
$TEXTSTYLE
  7
Standard
  9
$CLAYER
  8
0
  9
$CELTYPE
  6
ByLayer
  9
$CECOLOR
 62
   256
  9
$CELTSCALE
 40
1.0
  9
$DISPSILH
 70
     0
  9
$DIMSCALE
 40
1.0
  9
$DIMASZ
 40
3.5
  9
$DIMEXO
 40
1.0
  9
$DIMDLI
 40
3.75
  9
$DIMRND
 40
0.0
  9
$DIMDLE
 40
0.0
  9
$DIMEXE
 40
1.0
  9
$DIMTP
 40
0.0
  9
$DIMTM
 40
0.0
  9
$DIMTXT
 40
3.5
  9
$DIMCEN
 40
2.5
  9
$DIMTSZ
 40
0.0
  9
$DIMTOL
 70
     0
  9
$DIMLIM
 70
     0
  9
$DIMTIH
 70
     1
  9
$DIMTOH
 70
     1
  9
$DIMSE1
 70
     0
  9
$DIMSE2
 70
     0
  9
$DIMTAD
 70
     1
  9
$DIMZIN
 70
     0
  9
$DIMBLK
  1

  9
$DIMASO
 70
     1
  9
$DIMSHO
 70
     1
  9
$DIMPOST
  1

  9
$DIMAPOST
  1

  9
$DIMALT
 70
     0
  9
$DIMALTD
 70
     3
  9
$DIMALTF
 40
0.0393700787
  9
$DIMLFAC
 40
1.0
  9
$DIMTOFL
 70
     1
  9
$DIMTVP
 40
0.0
  9
$DIMTIX
 70
     0
  9
$DIMSOXD
 70
     0
  9
$DIMSAH
 70
     0
  9
$DIMBLK1
  1

  9
$DIMBLK2
  1

  9
$DIMSTYLE
  2
ISO-25
  9
$DIMCLRD
 70
     0
  9
$DIMCLRE
 70
     0
  9
$DIMCLRT
 70
     0
  9
$DIMTFAC
 40
1.0
  9
$DIMGAP
 40
1.524
  9
$DIMJUST
 70
     0
  9
$DIMSD1
 70
     0
  9
$DIMSD2
 70
     0
  9
$DIMTOLJ
 70
     0
  9
$DIMTZIN
 70
     0
  9
$DIMALTZ
 70
     0
  9
$DIMALTTZ
 70
     0
  9
$DIMUPT
 70
     0
  9
$DIMDEC
 70
     2
  9
$DIMTDEC
 70
     2
  9
$DIMALTU
 70
     2
  9
$DIMALTTD
 70
     3
  9
$DIMTXSTY
  7
Standard
  9
$DIMAUNIT
 70
     0
  9
$DIMADEC
 70
     2
  9
$DIMALTRND
 40
0.0
  9
$DIMAZIN
 70
     0
  9
$DIMDSEP
 70
    44
  9
$DIMATFIT
 70
     3
  9
$DIMFRAC
 70
     0
  9
$DIMLDRBLK
  1

  9
$DIMLUNIT
 70
     2
  9
$DIMLWD
 70
    -2
  9
$DIMLWE
 70
    -2
  9
$DIMTMOVE
 70
     0
  9
$LUNITS
 70
     2
  9
$LUPREC
 70
     2
  9
$SKETCHINC
 40
1.0
  9
$FILLETRAD
 40
10.0
  9
$AUNITS
 70
     0
  9
$AUPREC
 70
     2
  9
$MENU
  1
.
  9
$ELEVATION
 40
0.0
  9
$PELEVATION
 40
0.0
  9
$THICKNESS
 40
0.0
  9
$LIMCHECK
 70
     0
  9
$CHAMFERA
 40
0.0
  9
$CHAMFERB
 40
0.0
  9
$CHAMFERC
 40
0.0
  9
$CHAMFERD
 40
0.0
  9
$SKPOLY
 70
     0
  9
$TDCREATE
 40
2458985.665984907
  9
$TDUCREATE
 40
2458985.540984907
  9
$TDUPDATE
 40
2458985.665985185
  9
$TDUUPDATE
 40
2458985.540985185
  9
$TDINDWG
 40
0.0000000116
  9
$TDUSRTIMER
 40
0.0000000116
  9
$USRTIMER
 70
     1
  9
$ANGBASE
 50
0.0
  9
$ANGDIR
 70
     0
  9
$PDMODE
 70
     0
  9
$PDSIZE
 40
-1.0
  9
$PLINEWID
 40
0.0
  9
$SPLFRAME
 70
     0
  9
$SPLINETYPE
 70
     6
  9
$SPLINESEGS
 70
     8
  9
$HANDSEED
  5
D2
  9
$SURFTAB1
 70
     6
  9
$SURFTAB2
 70
     6
  9
$SURFTYPE
 70
     6
  9
$SURFU
 70
     6
  9
$SURFV
 70
     6
  9
$UCSBASE
  2

  9
$UCSNAME
  2

  9
$UCSORG
 10
0.0
 20
0.0
 30
0.0
  9
$UCSXDIR
 10
1.0
 20
0.0
 30
0.0
  9
$UCSYDIR
 10
0.0
 20
1.0
 30
0.0
  9
$UCSORTHOREF
  2

  9
$UCSORTHOVIEW
 70
     0
  9
$UCSORGTOP
 10
0.0
 20
0.0
 30
0.0
  9
$UCSORGBOTTOM
 10
0.0
 20
0.0
 30
0.0
  9
$UCSORGLEFT
 10
0.0
 20
0.0
 30
0.0
  9
$UCSORGRIGHT
 10
0.0
 20
0.0
 30
0.0
  9
$UCSORGFRONT
 10
0.0
 20
0.0
 30
0.0
  9
$UCSORGBACK
 10
0.0
 20
0.0
 30
0.0
  9
$PUCSBASE
  2

  9
$PUCSNAME
  2

  9
$PUCSORG
 10
0.0
 20
0.0
 30
0.0
  9
$PUCSXDIR
 10
1.0
 20
0.0
 30
0.0
  9
$PUCSYDIR
 10
0.0
 20
1.0
 30
0.0
  9
$PUCSORTHOREF
  2

  9
$PUCSORTHOVIEW
 70
     0
  9
$PUCSORGTOP
 10
0.0
 20
0.0
 30
0.0
  9
$PUCSORGBOTTOM
 10
0.0
 20
0.0
 30
0.0
  9
$PUCSORGLEFT
 10
0.0
 20
0.0
 30
0.0
  9
$PUCSORGRIGHT
 10
0.0
 20
0.0
 30
0.0
  9
$PUCSORGFRONT
 10
0.0
 20
0.0
 30
0.0
  9
$PUCSORGBACK
 10
0.0
 20
0.0
 30
0.0
  9
$USERI1
 70
     0
  9
$USERI2
 70
     0
  9
$USERI3
 70
     0
  9
$USERI4
 70
     0
  9
$USERI5
 70
     0
  9
$USERR1
 40
0.0
  9
$USERR2
 40
0.0
  9
$USERR3
 40
0.0
  9
$USERR4
 40
0.0
  9
$USERR5
 40
0.0
  9
$WORLDVIEW
 70
     1
  9
$SHADEDGE
 70
     3
  9
$SHADEDIF
 70
    70
  9
$TILEMODE
 70
     1
  9
$MAXACTVP
 70
    64
  9
$PINSBASE
 10
0.0
 20
0.0
 30
0.0
  9
$PLIMCHECK
 70
     0
  9
$PEXTMIN
 10
1.0000000000E+20
 20
1.0000000000E+20
 30
1.0000000000E+20
  9
$PEXTMAX
 10
-1.0000000000E+20
 20
-1.0000000000E+20
 30
-1.0000000000E+20
  9
$PLIMMIN
 10
0.0
 20
0.0
  9
$PLIMMAX
 10
420.0
 20
297.0
  9
$UNITMODE
 70
     0
  9
$VISRETAIN
 70
     1
  9
$PLINEGEN
 70
     0
  9
$PSLTSCALE
 70
     1
  9
$TREEDEPTH
 70
  3020
  9
$CMLSTYLE
  2
Standard
  9
$CMLJUST
 70
     0
  9
$CMLSCALE
 40
20.0
  9
$PROXYGRAPHICS
 70
     1
  9
$MEASUREMENT
 70
     1
  9
$CELWEIGHT
370
    -1
  9
$ENDCAPS
280
     0
  9
$JOINSTYLE
280
     0
  9
$LWDISPLAY
290
     1
  9
$INSUNITS
 70
     4
  9
$HYPERLINKBASE
  1

  9
$STYLESHEET
  1

  9
$XEDIT
290
     1
  9
$CEPSNTYPE
380
     0
  9
$PSTYLEMODE
290
     1
  9
$FINGERPRINTGUID
  2
{dabae546-7e92-456c-9d76-f2b9fd4fb44f}
  9
$VERSIONGUID
  2
{FAEB1C32-E019-11D5-929B-00C0DF256EC4}
  9
$EXTNAMES
290
     1
  9
$PSVPSCALE
 40
0.0
  9
$OLESTARTUP
290
     0
  0
ENDSEC
  0
SECTION
  2
CLASSES
  0
CLASS
  1
ACDBDICTIONARYWDFLT
  2
AcDbDictionaryWithDefault
  3
ObjectDBX Classes
 90
        0
280
     0
281
     0
  0
CLASS
  1
VISUALSTYLE
  2
AcDbVisualStyle
  3
ObjectDBX Classes
 90
     4095
280
     0
281
     0
  0
CLASS
  1
MATERIAL
  2
AcDbMaterial
  3
ObjectDBX Classes
 90
     1153
280
     0
281
     0
  0
CLASS
  1
SCALE
  2
AcDbScale
  3
ObjectDBX Classes
 90
     1153
280
     0
281
     0
  0
CLASS
  1
TABLESTYLE
  2
AcDbTableStyle
  3
ObjectDBX Classes
 90
     4095
280
     0
281
     0
  0
CLASS
  1
MLEADERSTYLE
  2
AcDbMLeaderStyle
  3
ACDB_MLEADERSTYLE_CLASS
 90
     4095
280
     0
281
     0
  0
CLASS
  1
SUN
  2
AcDbSun
  3
SCENEOE
 90
     1153
280
     0
281
     0
  0
CLASS
  1
ACDBPLACEHOLDER
  2
AcDbPlaceHolder
  3
ObjectDBX Classes
 90
        0
280
     0
281
     0
  0
CLASS
  1
LAYOUT
  2
AcDbLayout
  3
ObjectDBX Classes
 90
        0
280
     0
281
     0
  0
ENDSEC
  0
SECTION
  2
TABLES
  0
TABLE
  2
VPORT
  5
8
330
0
100
AcDbSymbolTable
 70
     1
  0
VPORT
  5
29
330
8
100
AcDbSymbolTableRecord
100
AcDbViewportTableRecord
  2
*Active
 70
     0
 10
0.0
 20
0.0
 11
1.0
 21
1.0
 12
139.7
 22
107.95
 13
0.0
 23
0.0
 14
10.0
 24
10.0
 15
10.0
 25
10.0
 16
0.0
 26
0.0
 36
1.0
 17
0.0
 27
0.0
 37
0.0
 40
215.9
 41
1.2941176471
 42
50.0
 43
0.0
 44
0.0
 50
0.0
 51
0.0
 71
     0
 72
  2000
 73
     1
 74
     3
 75
     0
 76
     0
 77
     0
 78
     0
281
     0
 65
     1
110
0.0
120
0.0
130
0.0
111
1.0
121
0.0
131
0.0
112
0.0
122
1.0
132
0.0
 79
     0
146
0.0
  0
ENDTAB
  0
TABLE
  2
LTYPE
  5
5
330
0
100
AcDbSymbolTable
 70
     6
  0
LTYPE
  5
14
330
5
100
AcDbSymbolTableRecord
100
AcDbLinetypeTableRecord
  2
ByBlock
 70
     0
  3

 72
    65
 73
     0
 40
0.0
  0
LTYPE
  5
15
330
5
100
AcDbSymbolTableRecord
100
AcDbLinetypeTableRecord
  2
ByLayer
 70
     0
  3

 72
    65
 73
     0
 40
0.0
  0
LTYPE
  5
16
330
5
100
AcDbSymbolTableRecord
100
AcDbLinetypeTableRecord
  2
Continuous
 70
     0
  3
Solid line
 72
    65
 73
     0
 40
0.0
  0
LTYPE
  5
6E
330
5
100
AcDbSymbolTableRecord
100
AcDbLinetypeTableRecord
  2
HIDDEN
 70
     0
  3
Hidden __ __ __ __ __ __ __ __ __ __ __ __ __ __
 72
    65
 73
     2
 40
1.905
 49
1.27
 74
     0
 49
-0.635
 74
     0
  0
LTYPE
  5
6F
330
5
100
AcDbSymbolTableRecord
100
AcDbLinetypeTableRecord
  2
PHANTOM
 70
     0
  3
Phantom ______  __  __  ______  __  __  ______
 72
    65
 73
     6
 40
12.7
 49
6.35
 74
     0
 49
-1.27
 74
     0
 49
1.27
 74
     0
 49
-1.27
 74
     0
 49
1.27
 74
     0
 49
-1.27
 74
     0
  0
LTYPE
  5
70
330
5
100
AcDbSymbolTableRecord
100
AcDbLinetypeTableRecord
  2
CENTER
 70
     0
  3
Center ____ _ ____ _ ____ _ ____ _ ____ _ ____
 72
    65
 73
     4
 40
10.16
 49
6.35
 74
     0
 49
-1.27
 74
     0
 49
1.27
 74
     0
 49
-1.27
 74
     0
  0
LTYPE
  5
71
330
5
100
AcDbSymbolTableRecord
100
AcDbLinetypeTableRecord
  2
CENTERX2
 70
     0
  3
Center (2x) ________  __  ________  __  _____
 72
    65
 73
     4
 40
20.32
 49
12.7
 74
     0
 49
-2.54
 74
     0
 49
2.54
 74
     0
 49
-2.54
 74
     0
  0
LTYPE
  5
72
330
5
100
AcDbSymbolTableRecord
100
AcDbLinetypeTableRecord
  2
DOT2
 70
     0
  3
Dot (.5x) ........................................
 72
    65
 73
     2
 40
0.635
 49
0.0
 74
     0
 49
-0.635
 74
     0
  0
ENDTAB
  0
TABLE
  2
LAYER
  5
2
330
0
100
AcDbSymbolTable
 70
    17
  0
LAYER
  5
10
330
2
100
AcDbSymbolTableRecord
100
AcDbLayerTableRecord
  2
0
 70
     0
 62
     7
  6
Continuous
370
    -3
390
F
  0
LAYER
  5
73
330
2
100
AcDbSymbolTableRecord
100
AcDbLayerTableRecord
  2
FORMAT
 70
     0
 62
     7
  6
Continuous
370
    -3
390
F
  0
LAYER
  5
74
330
2
100
AcDbSymbolTableRecord
100
AcDbLayerTableRecord
  2
YARDIMCI_GEOMETRI
 70
     0
 62
    -6
  6
Continuous
290
     0
370
    -3
390
F
  0
LAYER
  5
75
330
2
100
AcDbSymbolTableRecord
100
AcDbLayerTableRecord
  2
SAYFA_CERCEVESI
 70
     0
 62
     7
  6
Continuous
370
    25
390
F
  0
LAYER
  5
76
330
2
100
AcDbSymbolTableRecord
100
AcDbLayerTableRecord
  2
ANTET
 70
     0
 62
     7
  6
Continuous
370
    -3
390
F
  0
LAYER
  5
77
330
2
100
AcDbSymbolTableRecord
100
AcDbLayerTableRecord
  2
OLCU
 70
     0
 62
   150
  6
Continuous
370
    -3
390
F
  0
LAYER
  5
78
330
2
100
AcDbSymbolTableRecord
100
AcDbLayerTableRecord
  2
METIN
 70
     0
 62
    96
  6
Continuous
370
    -3
390
F
  0
LAYER
  5
79
330
2
100
AcDbSymbolTableRecord
100
AcDbLayerTableRecord
  2
BALON
 70
     0
 62
     5
  6
Continuous
370
    -3
390
F
  0
LAYER
  5
7A
330
2
100
AcDbSymbolTableRecord
100
AcDbLayerTableRecord
  2
VURGU
 70
     0
 62
     7
  6
Continuous
370
    -3
390
F
  0
LAYER
  5
7B
330
2
100
AcDbSymbolTableRecord
100
AcDbLayerTableRecord
  2
SILIK
 70
     0
 62
     7
  6
Continuous
370
    -3
390
F
  0
LAYER
  5
7C
330
2
100
AcDbSymbolTableRecord
100
AcDbLayerTableRecord
  2
MODEL
 70
     0
 62
     7
  6
Continuous
370
    -3
390
F
  0
LAYER
  5
7D
330
2
100
AcDbSymbolTableRecord
100
AcDbLayerTableRecord
  2
DETAYLANDıRMA
 70
     0
 62
   190
  6
Continuous
370
    -3
390
F
  0
LAYER
  5
7E
330
2
100
AcDbSymbolTableRecord
100
AcDbLayerTableRecord
  2
TOLERANS
 70
     0
 62
   230
  6
Continuous
370
    -3
390
F
  0
LAYER
  5
7F
330
2
100
AcDbSymbolTableRecord
100
AcDbLayerTableRecord
  2
MERKEZ_CIZGILERI
 70
     0
 62
    30
  6
Continuous
370
    -3
390
F
  0
LAYER
  5
80
330
2
100
AcDbSymbolTableRecord
100
AcDbLayerTableRecord
  2
KESIT-DETAY_CIZGILERI
 70
     0
 62
     7
  6
Continuous
370
    -3
390
F
  0
LAYER
  5
81
330
2
100
AcDbSymbolTableRecord
100
AcDbLayerTableRecord
  2
\U+041E\U+0421\U+0415\U+0412\U+042B\U+0415
 70
     0
 62
     7
  6
Continuous
370
    -3
390
F
  0
LAYER
  5
82
330
2
100
AcDbSymbolTableRecord
100
AcDbLayerTableRecord
  2
\U+0412\U+041E\U+0414\U+042F\U+041D\U+042B\U+0415_\U+0417\U+041D\U+0410\U+041A\U+0418
 70
     0
 62
    11
  6
Continuous
370
    -3
390
F
  0
ENDTAB
  0
TABLE
  2
STYLE
  5
3
330
0
100
AcDbSymbolTable
 70
     1
  0
STYLE
  5
11
330
3
100
AcDbSymbolTableRecord
100
AcDbTextStyleTableRecord
  2
Standard
 70
     0
 40
0.0
 41
1.0
 50
0.0
 71
     0
 42
3.5
  3
txt
  4

  0
ENDTAB
  0
TABLE
  2
VIEW
  5
6
330
0
100
AcDbSymbolTable
 70
     0
  0
ENDTAB
  0
TABLE
  2
UCS
  5
7
330
0
100
AcDbSymbolTable
 70
     0
  0
ENDTAB
  0
TABLE
  2
APPID
  5
9
330
0
100
AcDbSymbolTable
 70
     1
  0
APPID
  5
12
330
9
100
AcDbSymbolTableRecord
100
AcDbRegAppTableRecord
  2
ACAD
 70
     0
  0
ENDTAB
  0
TABLE
  2
DIMSTYLE
  5
A
330
0
100
AcDbSymbolTable
 70
     1
100
AcDbDimStyleTable
  0
DIMSTYLE
105
27
330
A
100
AcDbSymbolTableRecord
100
AcDbDimStyleTableRecord
  2
ISO-25
 70
     0
 41
2.5
 42
0.625
 43
3.75
 44
1.25
 73
     0
 74
     0
 77
     1
 78
     8
140
2.5
141
2.5
143
0.0393700787
147
0.625
171
     3
172
     1
178
     0
271
     2
272
     2
274
     3
278
    44
283
     0
284
     8
340
11
  0
ENDTAB
  0
TABLE
  2
BLOCK_RECORD
  5
1
330
0
100
AcDbSymbolTable
 70
     3
  0
BLOCK_RECORD
  5
1F
330
1
100
AcDbSymbolTableRecord
100
AcDbBlockTableRecord
  2
*Model_Space
340
22
  0
BLOCK_RECORD
  5
1B
330
1
100
AcDbSymbolTableRecord
100
AcDbBlockTableRecord
  2
*Paper_Space
340
1E
  0
BLOCK_RECORD
  5
23
330
1
100
AcDbSymbolTableRecord
100
AcDbBlockTableRecord
  2
*Paper_Space0
340
26
  0
BLOCK_RECORD
  5
93
330
1
100
AcDbSymbolTableRecord
100
AcDbBlockTableRecord
  2
SW_CENTERMARKSYMBOL_0
340
0
102
{BLKREFS
331
9E
102
}
  0
BLOCK_RECORD
  5
A5
330
1
100
AcDbSymbolTableRecord
100
AcDbBlockTableRecord
  2
SW_CENTERMARKSYMBOL_1
340
0
102
{BLKREFS
331
B0
102
}
  0
ENDTAB
  0
ENDSEC
  0
SECTION
  2
BLOCKS
  0
BLOCK
  5
20
330
1F
100
AcDbEntity
  8
0
100
AcDbBlockBegin
  2
*Model_Space
 70
     0
 10
0.0
 20
0.0
 30
0.0
  3
*Model_Space
  1

  0
ENDBLK
  5
21
330
1F
100
AcDbEntity
  8
0
100
AcDbBlockEnd
  0
BLOCK
  5
1C
330
1B
100
AcDbEntity
 67
     1
  8
0
100
AcDbBlockBegin
  2
*Paper_Space
 70
     0
 10
0.0
 20
0.0
 30
0.0
  3
*Paper_Space
  1

  0
ENDBLK
  5
1D
330
1B
100
AcDbEntity
 67
     1
  8
0
100
AcDbBlockEnd
  0
BLOCK
  5
24
330
23
100
AcDbEntity
  8
0
100
AcDbBlockBegin
  2
*Paper_Space0
 70
     0
 10
0.0
 20
0.0
 30
0.0
  3
*Paper_Space0
  1

  0
ENDBLK
  5
25
330
23
100
AcDbEntity
  8
0
100
AcDbBlockEnd
  0
BLOCK
  5
94
330
93
100
AcDbEntity
  8
0
100
AcDbBlockBegin
  2
SW_CENTERMARKSYMBOL_0
 70
     0
 10
0.0
 20
0.0
 30
0.0
  3
SW_CENTERMARKSYMBOL_0
  1

  0
LINE
  5
96
330
93
100
AcDbEntity
  8
FORMAT
 62
     0
100
AcDbLine
 10
0.0
 20
0.0
 30
0.0
 11
0.0
 21
2.5
 31
0.0
  0
LINE
  5
97
330
93
100
AcDbEntity
  8
FORMAT
 62
     0
100
AcDbLine
 10
0.0
 20
0.0
 30
0.0
 11
-2.5
 21
0.0
 31
0.0
  0
LINE
  5
98
330
93
100
AcDbEntity
  8
FORMAT
 62
     0
100
AcDbLine
 10
0.0
 20
0.0
 30
0.0
 11
0.0
 21
-2.5
 31
0.0
  0
LINE
  5
99
330
93
100
AcDbEntity
  8
FORMAT
 62
     0
100
AcDbLine
 10
0.0
 20
0.0
 30
0.0
 11
2.5
 21
0.0
 31
0.0
  0
LINE
  5
9A
330
93
100
AcDbEntity
  8
FORMAT
 62
     0
100
AcDbLine
 10
0.0
 20
5.0
 30
0.0
 11
0.0
 21
102.5
 31
0.0
  0
LINE
  5
9B
330
93
100
AcDbEntity
  8
FORMAT
 62
     0
100
AcDbLine
 10
-5.0
 20
0.0
 30
0.0
 11
-102.5
 21
0.0
 31
0.0
  0
LINE
  5
9C
330
93
100
AcDbEntity
  8
FORMAT
 62
     0
100
AcDbLine
 10
0.0
 20
-5.0
 30
0.0
 11
0.0
 21
-102.5
 31
0.0
  0
LINE
  5
9D
330
93
100
AcDbEntity
  8
FORMAT
 62
     0
100
AcDbLine
 10
5.0
 20
0.0
 30
0.0
 11
102.5
 21
0.0
 31
0.0
  0
ENDBLK
  5
95
330
93
100
AcDbEntity
  8
0
100
AcDbBlockEnd
  0
BLOCK
  5
A6
330
A5
100
AcDbEntity
  8
0
100
AcDbBlockBegin
  2
SW_CENTERMARKSYMBOL_1
 70
     0
 10
0.0
 20
0.0
 30
0.0
  3
SW_CENTERMARKSYMBOL_1
  1

  0
LINE
  5
A8
330
A5
100
AcDbEntity
  8
FORMAT
 62
     0
100
AcDbLine
 10
0.0
 20
0.0
 30
0.0
 11
0.0
 21
2.5
 31
0.0
  0
LINE
  5
A9
330
A5
100
AcDbEntity
  8
FORMAT
 62
     0
100
AcDbLine
 10
0.0
 20
0.0
 30
0.0
 11
-2.5
 21
0.0
 31
0.0
  0
LINE
  5
AA
330
A5
100
AcDbEntity
  8
FORMAT
 62
     0
100
AcDbLine
 10
0.0
 20
0.0
 30
0.0
 11
0.0
 21
-2.5
 31
0.0
  0
LINE
  5
AB
330
A5
100
AcDbEntity
  8
FORMAT
 62
     0
100
AcDbLine
 10
0.0
 20
0.0
 30
0.0
 11
2.5
 21
0.0
 31
0.0
  0
LINE
  5
AC
330
A5
100
AcDbEntity
  8
FORMAT
 62
     0
100
AcDbLine
 10
0.0
 20
5.0
 30
0.0
 11
0.0
 21
102.5
 31
0.0
  0
LINE
  5
AD
330
A5
100
AcDbEntity
  8
FORMAT
 62
     0
100
AcDbLine
 10
-5.0
 20
0.0
 30
0.0
 11
-102.5
 21
0.0
 31
0.0
  0
LINE
  5
AE
330
A5
100
AcDbEntity
  8
FORMAT
 62
     0
100
AcDbLine
 10
0.0
 20
-5.0
 30
0.0
 11
0.0
 21
-102.5
 31
0.0
  0
LINE
  5
AF
330
A5
100
AcDbEntity
  8
FORMAT
 62
     0
100
AcDbLine
 10
5.0
 20
0.0
 30
0.0
 11
102.5
 21
0.0
 31
0.0
  0
ENDBLK
  5
A7
330
A5
100
AcDbEntity
  8
0
100
AcDbBlockEnd
  0
ENDSEC
  0
SECTION
  2
ENTITIES
  0
LINE
  5
83
330
1F
100
AcDbEntity
  8
0
  6
Continuous
 62
     7
370
    25
100
AcDbLine
 10
44.8764026354
 20
306.6530614392
 30
0.0
 11
44.8764026354
 21
2.5971471564
 31
0.0
  0
LINE
  5
84
330
1F
100
AcDbEntity
  8
0
  6
Continuous
 62
     7
370
    25
100
AcDbLine
 10
244.8764056157
 20
2.5971471564
 30
0.0
 11
244.8764056157
 21
306.6530614392
 31
0.0
  0
LINE
  5
85
330
1F
100
AcDbEntity
  8
0
  6
Continuous
 62
     7
370
    25
100
AcDbLine
 10
244.8764056157
 20
306.6530614392
 30
0.0
 11
244.8764056157
 21
432.5971394078
 31
0.0
  0
LINE
  5
86
330
1F
100
AcDbEntity
  8
0
  6
Continuous
 62
     7
370
    25
100
AcDbLine
 10
244.8764056157
 20
-197.4028558238
 30
0.0
 11
244.8764056157
 21
2.5971471564
 31
0.0
  0
LINE
  5
87
330
1F
100
AcDbEntity
  8
0
  6
Continuous
 62
     7
370
    25
100
AcDbLine
 10
44.8764026354
 20
2.5971471564
 30
0.0
 11
44.8764026354
 21
-197.4028558238
 31
0.0
  0
LINE
  5
88
330
1F
100
AcDbEntity
  8
0
  6
Continuous
 62
     7
370
    25
100
AcDbLine
 10
44.8764026354
 20
432.5971394078
 30
0.0
 11
44.8764026354
 21
306.6530614392
 31
0.0
  0
LWPOLYLINE
  5
89
330
1F
100
AcDbEntity
  8
0
  6
Continuous
 62
     7
370
    25
100
AcDbPolyline
 90
       97
 70
   128
 43
0.0
 10
144.8764041255
 20
364.4944220082
 10
139.5264281149
 20
364.3705635564
 10
134.1993617083
 20
363.9995246426
 10
128.9180148582
 20
363.3829741971
 10
123.7050056647
 20
362.5234752194
 10
118.5826551358
 20
361.4247828023
 10
113.572897781
 20
360.0914865033
 10
108.6971894096
 20
358.529367973
 10
103.9764046858
 20
356.7451029317
 10
99.4307607602
 20
354.7463803784
 10
95.0797185491
 20
352.5416641728
 10
90.94191568
 20
350.140491058
 10
87.0350696336
 20
347.5530534283
 10
83.3759069632
 20
344.7904973523
 10
79.9801036905
 20
341.8646245496
 10
76.8621921728
 20
338.7880116002
 10
74.0355238508
 20
335.5737119214
 10
71.5122133683
 20
332.2356133954
 10
69.3030566166
 20
328.7879615323
 10
67.4175158332
 20
325.245538284
 10
65.863674898
 20
321.6234832303
 10
64.6481648277
 20
317.9373531834
 10
63.7762159298
 20
314.2028837697
 10
63.2515460442
 20
310.4360490338
 10
63.0764052461
 20
306.6530614392
 10
63.2515460442
 20
302.8700738446
 10
63.7762159298
 20
299.1032391087
 10
64.6481648277
 20
295.368769695
 10
65.863674898
 20
291.6826098458
 10
67.4175158332
 20
288.0605845944
 10
69.3030566166
 20
284.5181315438
 10
71.5122133683
 20
281.0704796807
 10
74.0355238508
 20
277.7323811547
 10
76.8621921728
 20
274.5181410805
 10
79.9801036905
 20
271.4414983289
 10
83.3759069632
 20
268.5156255261
 10
87.0350696336
 20
265.7530694501
 10
90.94191568
 20
263.1656318204
 10
95.0797185491
 20
260.7644587056
 10
99.4307607602
 20
258.5597425
 10
103.9764046858
 20
256.5609901444
 10
108.6971894096
 20
254.7767549054
 10
113.572897781
 20
253.2146363751
 10
118.5826551358
 20
251.8813698785
 10
123.7050056647
 20
250.7826178567
 10
128.9180148582
 20
249.923118879
 10
134.1993617083
 20
249.3065684335
 10
139.5264281149
 20
248.935559322
 10
144.8764041255
 20
248.8117306725
 10
150.2263801362
 20
248.935559322
 10
155.5534465428
 20
249.3065684335
 10
160.8347933929
 20
249.923118879
 10
166.0478025864
 20
250.7826178567
 10
171.1701531152
 20
251.8813698785
 10
176.1799104701
 20
253.2146363751
 10
181.0556188415
 20
254.7767549054
 10
185.7764035653
 20
256.5609901444
 10
190.3220474909
 20
258.5597425
 10
194.673089702
 20
260.7644587056
 10
198.8108925711
 20
263.1656318204
 10
202.7177386175
 20
265.7530694501
 10
206.3769012879
 20
268.5156255261
 10
209.7727045606
 20
271.4414983289
 10
212.8906160782
 20
274.5181410805
 10
215.7172844003
 20
277.7323811547
 10
218.2405948828
 20
281.0704796807
 10
220.4497516344
 20
284.5181315438
 10
222.3352924178
 20
288.0605845944
 10
223.8891333531
 20
291.6826098458
 10
225.1046434234
 20
295.368769695
 10
225.9765923212
 20
299.1032391087
 10
226.5012622069
 20
302.8700738446
 10
226.676403005
 20
306.6530614392
 10
226.5012622069
 20
310.4360490338
 10
225.9765923212
 20
314.2028837697
 10
225.1046434234
 20
317.9373531834
 10
223.8891333531
 20
321.6234832303
 10
222.3352924178
 20
325.245538284
 10
220.4497516344
 20
328.7879615323
 10
218.2405948828
 20
332.2356133954
 10
215.7172844003
 20
335.5737119214
 10
212.8906160782
 20
338.7880116002
 10
209.7727045606
 20
341.8646245496
 10
206.3769012879
 20
344.7904973523
 10
202.7177386175
 20
347.5530534283
 10
198.8108925711
 20
350.140491058
 10
194.673089702
 20
352.5416641728
 10
190.3220474909
 20
354.7463803784
 10
185.7764035653
 20
356.7451029317
 10
181.0556188415
 20
358.529367973
 10
176.1799104701
 20
360.0914865033
 10
171.1701531152
 20
361.4247828023
 10
166.0478025864
 20
362.5234752194
 10
160.8347933929
 20
363.3829741971
 10
155.5534465428
 20
363.9995246426
 10
150.2263801362
 20
364.3705635564
 10
144.8764041255
 20
364.4944220082
  0
LWPOLYLINE
  5
8A
330
1F
100
AcDbEntity
  8
0
  6
Continuous
 62
     7
370
    25
100
AcDbPolyline
 90
      107
 70
   128
 43
0.0
 10
144.8764041255
 20
377.3637204663
 10
138.9523413221
 20
377.2395639912
 10
133.049087059
 20
376.8674521939
 10
127.1873772334
 20
376.2486963765
 10
121.3877987306
 20
375.3854423062
 10
115.6707279573
 20
374.2808490292
 10
110.0562423657
 20
372.9386120335
 10
104.5640617798
 20
371.3636189
 10
99.2134794782
 20
369.5612936513
 10
94.0232932757
 20
367.5380139844
 10
89.0117272924
 20
365.300872852
 10
84.1963909756
 20
362.8577380673
 10
79.5941934179
 20
360.2171926991
 10
75.2212986539
 20
357.3884754674
 10
71.0930735062
 20
354.3815403477
 10
67.2240168045
 20
351.206996967
 10
63.627718408
 20
347.8759317891
 10
60.3168070506
 20
344.400086929
 10
57.3029130886
 20
340.7916217343
 10
54.5966237973
 20
337.063291599
 10
52.2074461172
 20
333.2280903355
 10
50.1437694023
 20
329.2995481984
 10
48.4128430675
 20
325.2914934651
 10
47.020754237
 20
321.2179332272
 10
45.9723830412
 20
317.0932322041
 10
45.2714175175
 20
312.9318743245
 10
44.920323808
 20
308.7484627263
 10
44.920323808
 20
304.5576601521
 10
45.2714175175
 20
300.3742485539
 10
45.9723830412
 20
296.212860872
 10
47.020754237
 20
292.0881598489
 10
48.4128430675
 20
288.0146294133
 10
50.1437694023
 20
284.00657468
 10
52.2074461172
 20
280.0780325429
 10
54.5966237973
 20
276.2428610818
 10
57.3029130886
 20
272.5145011441
 10
60.3168070506
 20
268.9060359494
 10
63.627718408
 20
265.4301910893
 10
67.2240168045
 20
262.0991259114
 10
71.0930735062
 20
258.9245527283
 10
75.2212986539
 20
255.917647411
 10
79.5941934179
 20
253.0889301793
 10
84.1963909756
 20
250.4483550088
 10
89.0117272924
 20
248.0052202241
 10
94.0232932757
 20
245.7680790917
 10
99.2134794782
 20
243.7447994248
 10
104.5640617798
 20
241.9425039784
 10
110.0562423657
 20
240.3674810426
 10
115.6707279573
 20
239.0253036515
 10
121.3877987306
 20
237.9206507699
 10
127.1873772334
 20
237.0574563042
 10
133.049087059
 20
236.4387004868
 10
138.9523413221
 20
236.0665588872
 10
144.8764041255
 20
235.9423726098
 10
150.8004669289
 20
236.0665588872
 10
156.703721192
 20
236.4387004868
 10
162.5654310177
 20
237.0574563042
 10
168.3650095205
 20
237.9206507699
 10
174.0820802937
 20
239.0253036515
 10
179.6965658854
 20
240.3674810426
 10
185.1887464713
 20
241.9425039784
 10
190.5393287729
 20
243.7447994248
 10
195.7295149754
 20
245.7680790917
 10
200.7410809587
 20
248.0052202241
 10
205.5564172755
 20
250.4483550088
 10
210.1586148332
 20
253.0889301793
 10
214.5315095971
 20
255.917647411
 10
218.6597347449
 20
258.9245527283
 10
222.5287914465
 20
262.0991259114
 10
226.1250898431
 20
265.4301910893
 10
229.4360012005
 20
268.9060359494
 10
232.4498951624
 20
272.5145011441
 10
235.1561844538
 20
276.2428610818
 10
237.5453621338
 20
280.0780325429
 10
239.6090388487
 20
284.00657468
 10
241.3399651836
 20
288.0146294133
 10
242.7320540141
 20
292.0881598489
 10
243.7804252098
 20
296.212860872
 10
244.4813907336
 20
300.3742485539
 10
244.832484443
 20
304.5576601521
 10
244.832484443
 20
308.7484627263
 10
244.4813907336
 20
312.9318743245
 10
243.7804252098
 20
317.0932322041
 10
242.7320540141
 20
321.2179332272
 10
241.3399651836
 20
325.2914934651
 10
239.6090388487
 20
329.2995481984
 10
237.5453621338
 20
333.2280903355
 10
235.1561844538
 20
337.063291599
 10
232.4498951624
 20
340.7916217343
 10
229.4360012005
 20
344.400086929
 10
226.1250898431
 20
347.8759317891
 10
222.5287914465
 20
351.206996967
 10
218.6597347449
 20
354.3815403477
 10
214.5315095971
 20
357.3884754674
 10
210.1586148332
 20
360.2171926991
 10
205.5564172755
 20
362.8577380673
 10
200.7410809587
 20
365.300872852
 10
195.7295149754
 20
367.5380139844
 10
190.5393287729
 20
369.5612936513
 10
185.1887464713
 20
371.3636189
 10
179.6965658854
 20
372.9386120335
 10
174.0820802937
 20
374.2808490292
 10
168.3650095205
 20
375.3854423062
 10
162.5654310177
 20
376.2486963765
 10
156.703721192
 20
376.8674521939
 10
150.8004669289
 20
377.2395639912
 10
144.8764041255
 20
377.3637204663
  0
ELLIPSE
  5
8B
330
1F
100
AcDbEntity
  8
0
  6
Continuous
 62
     7
370
    25
100
AcDbEllipse
 10
144.8764041255
 20
2.5971441762
 30
0.0
 11
99.99999999999997
 21
0.0
 31
0.0
210
0.0
220
0.0
230
1.0
 40
0.4142135624
 41
3.141592653589793
 42
6.283185307179586
  0
LINE
  5
8C
330
1F
100
AcDbEntity
  8
0
  6
Continuous
 62
     7
370
    25
100
AcDbLine
 10
44.8764026354
 20
-197.4028558238
 30
0.0
 11
244.8764056157
 21
-197.4028558238
 31
0.0
  0
LINE
  5
8D
330
1F
100
AcDbEntity
  8
0
  6
Continuous
 62
     7
370
    25
100
AcDbLine
 10
44.8764026354
 20
432.5971394078
 30
0.0
 11
244.8764056157
 21
432.5971394078
 31
0.0
  0
LINE
  5
8E
330
1F
100
AcDbEntity
  8
0
  6
Continuous
 62
     7
370
    25
100
AcDbLine
 10
44.8764026354
 20
-459.6851615085
 30
0.0
 11
44.8764026354
 21
-763.7410906925
 31
0.0
  0
LINE
  5
8F
330
1F
100
AcDbEntity
  8
0
  6
Continuous
 62
     7
370
    25
100
AcDbLine
 10
244.8764056157
 20
-763.7410906925
 30
0.0
 11
244.8764056157
 21
-459.6851615085
 31
0.0
  0
CIRCLE
  5
90
330
1F
100
AcDbEntity
  8
0
  6
Continuous
 62
     7
370
    25
100
AcDbCircle
 10
144.8764041255
 20
-763.7410906925
 30
0.0
 40
81.80000000000001
  0
CIRCLE
  5
91
330
1F
100
AcDbEntity
  8
0
  6
Continuous
 62
     7
370
    25
100
AcDbCircle
 10
144.8764041255
 20
-763.7410906925
 30
0.0
 40
100.0
  0
LWPOLYLINE
  5
92
330
1F
100
AcDbEntity
  8
0
  6
Continuous
 62
     7
370
    25
100
AcDbPolyline
 90
       55
 70
   128
 43
0.0
 10
44.8764026354
 20
-459.6851615085
 10
44.920323808
 20
-457.5897900238
 10
45.2714175175
 20
-453.4063486232
 10
45.9723830412
 20
-449.2449907436
 10
47.020754237
 20
-445.1202897205
 10
48.4128430675
 20
-441.0467592849
 10
50.1437694023
 20
-437.0386747493
 10
52.2074461172
 20
-433.1101624145
 10
54.5966237973
 20
-429.2749611511
 10
57.3029130886
 20
-425.5466012134
 10
60.3168070506
 20
-421.938165821
 10
63.627718408
 20
-418.4622911586
 10
67.2240168045
 20
-415.1312259807
 10
71.0930735062
 20
-411.9566826
 10
75.2212986539
 20
-408.9497474803
 10
79.5941934179
 20
-406.1210302486
 10
84.1963909756
 20
-403.4804848804
 10
89.0117272924
 20
-401.0373500957
 10
94.0232932757
 20
-398.8002089633
 10
99.2134794782
 20
-396.7769292964
 10
104.5640617798
 20
-394.9746040477
 10
110.0562423657
 20
-393.3995811119
 10
115.6707279573
 20
-392.0574037208
 10
121.3877987306
 20
-390.9527806415
 10
127.1873772334
 20
-390.0895563735
 10
133.049087059
 20
-389.4708005561
 10
138.9523413221
 20
-389.0986887588
 10
144.8764041255
 20
-388.9745024814
 10
150.8004669289
 20
-389.0986887588
 10
156.703721192
 20
-389.4708005561
 10
162.5654310177
 20
-390.0895563735
 10
168.3650095205
 20
-390.9527806415
 10
174.0820802937
 20
-392.0574037208
 10
179.6965658854
 20
-393.3995811119
 10
185.1887464713
 20
-394.9746040477
 10
190.5393287729
 20
-396.7769292964
 10
195.7295149754
 20
-398.8002089633
 10
200.7410809587
 20
-401.0373500957
 10
205.5564172755
 20
-403.4804848804
 10
210.1586148332
 20
-406.1210302486
 10
214.5315095971
 20
-408.9497474803
 10
218.6597347449
 20
-411.9566826
 10
222.5287914465
 20
-415.1312259807
 10
226.1250898431
 20
-418.4622911586
 10
229.4360012005
 20
-421.938165821
 10
232.4498951624
 20
-425.5466012134
 10
235.1561844538
 20
-429.2749611511
 10
237.5453621338
 20
-433.1101624145
 10
239.6090388487
 20
-437.0386747493
 10
241.3399651836
 20
-441.0467592849
 10
242.7320540141
 20
-445.1202897205
 10
243.7804252098
 20
-449.2449907436
 10
244.4813907336
 20
-453.4063486232
 10
244.832484443
 20
-457.5897900238
 10
244.8764056157
 20
-459.6851615085
  0
INSERT
  5
9E
330
1F
100
AcDbEntity
  8
FORMAT
100
AcDbBlockReference
  2
SW_CENTERMARKSYMBOL_0
 10
144.8764041255
 20
-763.7410906925
 30
0.0
  0
LINE
  5
9F
330
1F
100
AcDbEntity
  8
0
  6
Continuous
 62
     7
370
    25
100
AcDbLine
 10
244.8764056157
 20
608.5975560718
 30
0.0
 11
244.8764056157
 21
912.6534852558
 31
0.0
  0
LINE
  5
A0
330
1F
100
AcDbEntity
  8
0
  6
Continuous
 62
     7
370
    25
100
AcDbLine
 10
44.8764026354
 20
912.6534852558
 30
0.0
 11
44.8764026354
 21
608.5975560718
 31
0.0
  0
CIRCLE
  5
A1
330
1F
100
AcDbEntity
  8
0
  6
Continuous
 62
     7
370
    25
100
AcDbCircle
 10
144.8764041255
 20
912.6534852558
 30
0.0
 40
81.80000000000001
  0
CIRCLE
  5
A2
330
1F
100
AcDbEntity
  8
0
  6
Continuous
 62
     7
370
    25
100
AcDbCircle
 10
144.8764041255
 20
912.6534852558
 30
0.0
 40
100.0
  0
LWPOLYLINE
  5
A3
330
1F
100
AcDbEntity
  8
0
  6
Continuous
 62
     7
370
    25
100
AcDbPolyline
 90
      107
 70
   128
 43
0.0
 10
144.8764041255
 20
679.3082449013
 10
138.9523413221
 20
679.1840586239
 10
133.049087059
 20
678.8119319254
 10
127.1873772334
 20
678.193176108
 10
121.3877987306
 20
677.3299667412
 10
115.6707279573
 20
676.2253287607
 10
110.0562423657
 20
674.8831513697
 10
104.5640617798
 20
673.308143335
 10
99.2134794782
 20
671.5058329874
 10
94.0232932757
 20
669.4825533205
 10
89.0117272924
 20
667.2454121881
 10
84.1963909756
 20
664.8022625023
 10
79.5941934179
 20
662.1617171341
 10
75.2212986539
 20
659.3329999023
 10
71.0930735062
 20
656.3260647827
 10
67.2240168045
 20
653.151521402
 10
63.627718408
 20
649.8204562241
 10
60.3168070506
 20
646.3445815617
 10
57.3029130886
 20
642.7361461693
 10
54.5966237973
 20
639.0077862316
 10
52.2074461172
 20
635.1725849682
 10
50.1437694023
 20
631.2440726334
 10
48.4128430675
 20
627.2359880978
 10
47.020754237
 20
623.1624576622
 10
45.9723830412
 20
619.0377566391
 10
45.2714175175
 20
614.8763987595
 10
44.920323808
 20
610.6929573589
 10
44.920323808
 20
606.5021845871
 10
45.2714175175
 20
602.3187431866
 10
45.9723830412
 20
598.1573853069
 10
47.020754237
 20
594.0326842838
 10
48.4128430675
 20
589.9591538483
 10
50.1437694023
 20
585.9510693127
 10
52.2074461172
 20
582.0225569778
 10
54.5966237973
 20
578.1873557144
 10
57.3029130886
 20
574.4589957767
 10
60.3168070506
 20
570.8505603844
 10
63.627718408
 20
567.374685722
 10
67.2240168045
 20
564.043620544
 10
71.0930735062
 20
560.8690771633
 10
75.2212986539
 20
557.8621420437
 10
79.5941934179
 20
555.0334248119
 10
84.1963909756
 20
552.3928794437
 10
89.0117272924
 20
549.949744659
 10
94.0232932757
 20
547.7126035267
 10
99.2134794782
 20
545.6893238598
 10
104.5640617798
 20
543.8869986111
 10
110.0562423657
 20
542.3119756752
 10
115.6707279573
 20
540.9697982841
 10
121.3877987306
 20
539.8651752048
 10
127.1873772334
 20
539.0019509369
 10
133.049087059
 20
538.3831951195
 10
138.9523413221
 20
538.0110833221
 10
144.8764041255
 20
537.8868970447
 10
150.8004669289
 20
538.0110833221
 10
156.703721192
 20
538.3831951195
 10
162.5654310177
 20
539.0019509369
 10
168.3650095205
 20
539.8651752048
 10
174.0820802937
 20
540.9697982841
 10
179.6965658854
 20
542.3119756752
 10
185.1887464713
 20
543.8869986111
 10
190.5393287729
 20
545.6893238598
 10
195.7295149754
 20
547.7126035267
 10
200.7410809587
 20
549.949744659
 10
205.5564172755
 20
552.3928794437
 10
210.1586148332
 20
555.0334248119
 10
214.5315095971
 20
557.8621420437
 10
218.6597347449
 20
560.8690771633
 10
222.5287914465
 20
564.043620544
 10
226.1250898431
 20
567.374685722
 10
229.4360012005
 20
570.8505603844
 10
232.4498951624
 20
574.4589957767
 10
235.1561844538
 20
578.1873557144
 10
237.5453621338
 20
582.0225569778
 10
239.6090388487
 20
585.9510693127
 10
241.3399651836
 20
589.9591538483
 10
242.7320540141
 20
594.0326842838
 10
243.7804252098
 20
598.1573853069
 10
244.4813907336
 20
602.3187431866
 10
244.832484443
 20
606.5021845871
 10
244.832484443
 20
610.6929573589
 10
244.4813907336
 20
614.8763987595
 10
243.7804252098
 20
619.0377566391
 10
242.7320540141
 20
623.1624576622
 10
241.3399651836
 20
627.2359880978
 10
239.6090388487
 20
631.2440726334
 10
237.5453621338
 20
635.1725849682
 10
235.1561844538
 20
639.0077862316
 10
232.4498951624
 20
642.7361461693
 10
229.4360012005
 20
646.3445815617
 10
226.1250898431
 20
649.8204562241
 10
222.5287914465
 20
653.151521402
 10
218.6597347449
 20
656.3260647827
 10
214.5315095971
 20
659.3329999023
 10
210.1586148332
 20
662.1617171341
 10
205.5564172755
 20
664.8022625023
 10
200.7410809587
 20
667.2454121881
 10
195.7295149754
 20
669.4825533205
 10
190.5393287729
 20
671.5058329874
 10
185.1887464713
 20
673.308143335
 10
179.6965658854
 20
674.8831513697
 10
174.0820802937
 20
676.2253287607
 10
168.3650095205
 20
677.3299667412
 10
162.5654310177
 20
678.193176108
 10
156.703721192
 20
678.8119319254
 10
150.8004669289
 20
679.1840586239
 10
144.8764041255
 20
679.3082449013
  0
LWPOLYLINE
  5
A4
330
1F
100
AcDbEntity
  8
0
  6
Continuous
 62
     7
370
    25
100
AcDbPolyline
 90
       97
 70
   128
 43
0.0
 10
144.8764041255
 20
666.4389017397
 10
139.5264281149
 20
666.315058189
 10
134.1993617083
 20
665.9440639788
 10
128.9180148582
 20
665.327498632
 10
123.7050056647
 20
664.4680145555
 10
118.5826551358
 20
663.3692774349
 10
113.572897781
 20
662.0359811359
 10
108.6971894096
 20
660.473892408
 10
103.9764046858
 20
658.6896273666
 10
99.4307607602
 20
656.6908750111
 10
95.0797185491
 20
654.4861886078
 10
90.94191568
 20
652.0849856907
 10
87.0350696336
 20
649.4975778633
 10
83.3759069632
 20
646.7350217873
 10
79.9801036905
 20
643.8091489845
 10
76.8621921728
 20
640.7325062328
 10
74.0355238508
 20
637.5182363563
 10
71.5122133683
 20
634.1801378303
 10
69.3030566166
 20
630.7324859673
 10
67.4175158332
 20
627.190062719
 10
65.863674898
 20
623.5680076652
 10
64.6481648277
 20
619.8818478161
 10
63.7762159298
 20
616.1473784023
 10
63.2515460442
 20
612.3805734688
 10
63.0764052461
 20
608.5975560718
 10
63.2515460442
 20
604.8145684772
 10
63.7762159298
 20
601.0477635437
 10
64.6481648277
 20
597.3132941299
 10
65.863674898
 20
593.6271342808
 10
67.4175158332
 20
590.0050792271
 10
69.3030566166
 20
586.4626559788
 10
71.5122133683
 20
583.0150041157
 10
74.0355238508
 20
579.6769055897
 10
76.8621921728
 20
576.4626357132
 10
79.9801036905
 20
573.3859929615
 10
83.3759069632
 20
570.4601201588
 10
87.0350696336
 20
567.6975640827
 10
90.94191568
 20
565.1101562553
 10
95.0797185491
 20
562.7089533382
 10
99.4307607602
 20
560.504266935
 10
103.9764046858
 20
558.5055145794
 10
108.6971894096
 20
556.721249538
 10
113.572897781
 20
555.1591310078
 10
118.5826551358
 20
553.8258645111
 10
123.7050056647
 20
552.7271422916
 10
128.9180148582
 20
551.867643314
 10
134.1993617083
 20
551.2510630661
 10
139.5264281149
 20
550.880083757
 10
144.8764041255
 20
550.7562253052
 10
150.2263801362
 20
550.880083757
 10
155.5534465428
 20
551.2510630661
 10
160.8347933929
 20
551.867643314
 10
166.0478025864
 20
552.7271422916
 10
171.1701531152
 20
553.8258645111
 10
176.1799104701
 20
555.1591310078
 10
181.0556188415
 20
556.721249538
 10
185.7764035653
 20
558.5055145794
 10
190.3220474909
 20
560.504266935
 10
194.673089702
 20
562.7089533382
 10
198.8108925711
 20
565.1101562553
 10
202.7177386175
 20
567.6975640827
 10
206.3769012879
 20
570.4601201588
 10
209.7727045606
 20
573.3859929615
 10
212.8906160782
 20
576.4626357132
 10
215.7172844003
 20
579.6769055897
 10
218.2405948828
 20
583.0150041157
 10
220.4497516344
 20
586.4626559788
 10
222.3352924178
 20
590.0050792271
 10
223.8891333531
 20
593.6271342808
 10
225.1046434234
 20
597.3132941299
 10
225.9765923212
 20
601.0477635437
 10
226.5012622069
 20
604.8145684772
 10
226.676403005
 20
608.5975560718
 10
226.5012622069
 20
612.3805734688
 10
225.9765923212
 20
616.1473784023
 10
225.1046434234
 20
619.8818478161
 10
223.8891333531
 20
623.5680076652
 10
222.3352924178
 20
627.190062719
 10
220.4497516344
 20
630.7324859673
 10
218.2405948828
 20
634.1801378303
 10
215.7172844003
 20
637.5182363563
 10
212.8906160782
 20
640.7325062328
 10
209.7727045606
 20
643.8091489845
 10
206.3769012879
 20
646.7350217873
 10
202.7177386175
 20
649.4975778633
 10
198.8108925711
 20
652.0849856907
 10
194.673089702
 20
654.4861886078
 10
190.3220474909
 20
656.6908750111
 10
185.7764035653
 20
658.6896273666
 10
181.0556188415
 20
660.473892408
 10
176.1799104701
 20
662.0359811359
 10
171.1701531152
 20
663.3692774349
 10
166.0478025864
 20
664.4680145555
 10
160.8347933929
 20
665.327498632
 10
155.5534465428
 20
665.9440639788
 10
150.2263801362
 20
666.315058189
 10
144.8764041255
 20
666.4389017397
  0
INSERT
  5
B0
330
1F
100
AcDbEntity
  8
FORMAT
100
AcDbBlockReference
  2
SW_CENTERMARKSYMBOL_1
 10
144.8764041255
 20
912.6534852558
 30
0.0
  0
LINE
  5
B1
330
1F
100
AcDbEntity
  8
0
  6
Continuous
 62
     7
370
    25
100
AcDbLine
 10
868.5593443477
 20
244.0185039536
 30
0.0
 11
868.5593443477
 21
432.5971394078
 31
0.0
  0
LINE
  5
B2
330
1F
100
AcDbEntity
  8
0
  6
Continuous
 62
     7
370
    25
100
AcDbLine
 10
868.5593443477
 20
-197.4028558238
 30
0.0
 11
868.5593443477
 21
-38.8242066606
 31
0.0
  0
LINE
  5
B3
330
1F
100
AcDbEntity
  8
0
  6
Continuous
 62
     7
370
    25
100
AcDbLine
 10
668.5593413675
 20
432.5971394078
 30
0.0
 11
668.5593413675
 21
-197.4028558238
 31
0.0
  0
LINE
  5
B4
330
1F
100
AcDbEntity
  8
0
  6
Continuous
 62
     7
370
    25
100
AcDbLine
 10
1001.9045832121
 20
377.3637204663
 30
0.0
 11
868.5593443477
 21
244.0185039536
 31
0.0
  0
LINE
  5
B5
330
1F
100
AcDbEntity
  8
0
  6
Continuous
 62
     7
370
    25
100
AcDbLine
 10
868.5593443477
 20
-38.8242066606
 30
0.0
 11
1143.3259310686
 21
235.9423726098
 31
0.0
  0
LINE
  5
B6
330
1F
100
AcDbEntity
  8
0
  6
Continuous
 62
     7
370
    25
100
AcDbLine
 10
768.5593428576
 20
-197.4028558238
 30
0.0
 11
868.5593443477
 21
-197.4028558238
 31
0.0
  0
LINE
  5
B7
330
1F
100
AcDbEntity
  8
0
  6
Continuous
 62
     7
370
    25
100
AcDbLine
 10
668.5593413675
 20
-197.4028558238
 30
0.0
 11
768.5593428576
 21
-197.4028558238
 31
0.0
  0
LINE
  5
B8
330
1F
100
AcDbEntity
  8
0
  6
Continuous
 62
     7
370
    25
100
AcDbLine
 10
768.5593428576
 20
432.5971394078
 30
0.0
 11
868.5593443477
 21
432.5971394078
 31
0.0
  0
LINE
  5
B9
330
1F
100
AcDbEntity
  8
0
  6
Continuous
 62
     7
370
    25
100
AcDbLine
 10
668.5593413675
 20
432.5971394078
 30
0.0
 11
768.5593428576
 21
432.5971394078
 31
0.0
  0
LWPOLYLINE
  5
BA
330
1F
100
AcDbEntity
  8
0
  6
Continuous
 62
     7
370
    25
100
AcDbPolyline
 90
       44
 70
   128
 43
0.0
 10
768.5593428576
 20
2.5971471564
 10
772.2544927636
 20
11.5180253283
 10
775.9445958325
 20
20.4267143504
 10
779.6246108153
 20
29.3110697762
 10
783.2895122954
 20
38.1589173571
 10
786.9342944139
 20
46.9582020537
 10
790.5539783203
 20
55.6968837277
 10
794.1436214858
 20
64.3630414502
 10
797.698317703
 20
72.9448586003
 10
801.2132147813
 20
81.4305632607
 10
804.6835089588
 20
89.8085921304
 10
808.1044653916
 20
98.0675011174
 10
811.4714051151
 20
106.196024944
 10
814.779731121
 20
114.1830473439
 10
818.0249283576
 20
122.0176308648
 10
821.202560004
 20
129.6891062752
 10
824.308286097
 20
137.1870129601
 10
827.3378672564
 20
144.5010691182
 10
830.2871646845
 20
151.6212909714
 10
833.1521513426
 20
158.5379629628
 10
835.9289082253
 20
165.2416675584
 10
838.613642987
 20
171.7231958405
 10
841.2026973927
 20
177.9737263219
 10
843.6925324166
 20
183.9847057359
 10
846.0797431433
 20
189.7479384438
 10
848.3610662186
 20
195.2555566327
 10
850.5333947503
 20
200.4999905125
 10
852.5937485063
 20
205.4741471307
 10
854.5393260681
 20
210.1712017552
 10
856.3674675786
 20
214.5847170846
 10
858.0756696427
 20
218.7086730496
 10
859.6616076791
 20
222.5374668137
 10
861.1231061184
 20
226.0658531682
 10
862.4581756556
 20
229.2889743344
 10
863.6649908984
 20
232.2025089757
 10
864.7419052684
 20
234.8024039761
 10
865.6874435508
 20
237.0851426617
 10
866.5003167951
 20
239.0475659863
 10
867.1794148648
 20
240.6870513455
 10
867.7238138878
 20
242.0013635651
 10
868.1327613556
 20
242.9886250989
 10
868.4057059252
 20
243.6475842492
 10
868.542267617
 20
243.9772873418
 10
868.5593443477
 20
244.0185039536
  0
LWPOLYLINE
  5
BB
330
1F
100
AcDbEntity
  8
0
  6
Continuous
 62
     7
370
    25
100
AcDbPolyline
 90
       29
 70
   128
 43
0.0
 10
868.5593443477
 20
-38.8242066606
 10
868.5185598695
 20
-38.8073236449
 10
868.192515012
 20
-38.672274421
 10
867.54149073
 20
-38.4026081069
 10
866.5675955379
 20
-37.9992038711
 10
865.2740257346
 20
-37.4633879169
 10
863.6649908984
 20
-36.7969036802
 10
861.7457436883
 20
-36.0019267305
 10
859.5225425923
 20
-35.0810498698
 10
857.0026370251
 20
-34.0372682317
 10
854.1942449772
 20
-32.8739941819
 10
851.1065306628
 20
-31.5950275167
 10
847.7495672667
 20
-30.2045256599
 10
844.1342996919
 20
-28.7070334657
 10
840.2725222075
 20
-27.1074236139
 10
836.1768337452
 20
-25.4109413131
 10
831.8605857456
 20
-23.6230850919
 10
827.3378672564
 20
-21.7497111066
 10
822.6234229767
 20
-19.7969288333
 10
817.7326346302
 20
-17.7711010679
 10
812.6814539099
 20
-15.6788290246
 10
807.4863540494
 20
-13.5269523366
 10
802.1642813945
 20
-11.3224745496
 10
796.7325976604
 20
-9.0726078256
 10
791.2090203279
 20
-6.7846537336
 10
785.6115630382
 20
-4.4661224588
 10
779.9584834391
 20
-2.1245390876
 10
774.2682240458
 20
0.2324520842
 10
768.5593428576
 20
2.5971471564
  0
LWPOLYLINE
  5
BC
330
1F
100
AcDbEntity
  8
0
  6
Continuous
 62
     7
370
    25
100
AcDbPolyline
 90
       55
 70
   128
 43
0.0
 10
1001.9045832121
 20
377.3637204663
 10
1002.0287694895
 20
377.2395639912
 10
1002.400896188
 20
376.8674521939
 10
1003.0196520054
 20
376.2486963765
 10
1003.8828613722
 20
375.3854423062
 10
1004.9874993527
 20
374.2808490292
 10
1006.3296767437
 20
372.9386120335
 10
1007.9046847784
 20
371.3636189
 10
1009.706995126
 20
369.5612936513
 10
1011.7302747929
 20
367.5380139844
 10
1013.9674159252
 20
365.300872852
 10
1016.4105656111
 20
362.8577380673
 10
1019.0511109793
 20
360.2171926991
 10
1021.879828211
 20
357.3884754674
 10
1024.8867633307
 20
354.3815403477
 10
1028.0613067114
 20
351.206996967
 10
1031.3923718893
 20
347.8759317891
 10
1034.8682465517
 20
344.400086929
 10
1038.4766819441
 20
340.7916217343
 10
1042.2050418818
 20
337.063291599
 10
1046.0402431452
 20
333.2280903355
 10
1049.96875548
 20
329.2995481984
 10
1053.9768400156
 20
325.2914934651
 10
1058.0503704512
 20
321.2179332272
 10
1062.1750714743
 20
317.0932322041
 10
1066.3364293539
 20
312.9318743245
 10
1070.5198707545
 20
308.7484627263
 10
1074.7106435263
 20
304.5576601521
 10
1078.8940849268
 20
300.3742485539
 10
1083.0554428065
 20
296.212860872
 10
1087.1801438296
 20
292.0881598489
 10
1091.2536742651
 20
288.0146294133
 10
1095.2617588007
 20
284.00657468
 10
1099.1902711355
 20
280.0780325429
 10
1103.025472399
 20
276.2428610818
 10
1106.7538323366
 20
272.5145011441
 10
1110.362267729
 20
268.9060359494
 10
1113.8381423914
 20
265.4301910893
 10
1117.1692075693
 20
262.0991259114
 10
1120.3437509501
 20
258.9245527283
 10
1123.3506860697
 20
255.917647411
 10
1126.1794033015
 20
253.0889301793
 10
1128.8199486697
 20
250.4483550088
 10
1131.2630834543
 20
248.0052202241
 10
1133.5002245867
 20
245.7680790917
 10
1135.5235042536
 20
243.7447994248
 10
1137.3258295023
 20
241.9425039784
 10
1138.9008524382
 20
240.3674810426
 10
1140.2430298292
 20
239.0253036515
 10
1141.3476529085
 20
237.9206507699
 10
1142.2108771765
 20
237.0574563042
 10
1142.8296329939
 20
236.4387004868
 10
1143.2017447912
 20
236.0665588872
 10
1143.3259310686
 20
235.9423726098
 10
1143.3259310686
 20
235.9423726098
  0
LINE
  5
BD
330
1F
100
AcDbEntity
  8
0
  6
Continuous
 62
     7
370
    25
100
AcDbLine
 10
-277.1716399118
 20
-197.4028558238
 30
0.0
 11
-277.1716399118
 21
432.5971394078
 31
0.0
  0
LINE
  5
BE
330
1F
100
AcDbEntity
  8
0
  6
Continuous
 62
     7
370
    25
100
AcDbLine
 10
-477.171642892
 20
-38.8242066606
 30
0.0
 11
-477.171642892
 21
-197.4028558238
 31
0.0
  0
LINE
  5
BF
330
1F
100
AcDbEntity
  8
0
  6
Continuous
 62
     7
370
    25
100
AcDbLine
 10
-477.171642892
 20
432.5971394078
 30
0.0
 11
-477.171642892
 21
244.0185039536
 31
0.0
  0
LINE
  5
C0
330
1F
100
AcDbEntity
  8
0
  6
Continuous
 62
     7
370
    25
100
AcDbLine
 10
-751.938229613
 20
235.9423726098
 30
0.0
 11
-477.171642892
 21
-38.8242066606
 31
0.0
  0
LINE
  5
C1
330
1F
100
AcDbEntity
  8
0
  6
Continuous
 62
     7
370
    25
100
AcDbLine
 10
-477.171642892
 20
244.0185039536
 30
0.0
 11
-610.5168817564
 21
377.3637204663
 31
0.0
  0
LINE
  5
C2
330
1F
100
AcDbEntity
  8
0
  6
Continuous
 62
     7
370
    25
100
AcDbLine
 10
-477.171642892
 20
-197.4028558238
 30
0.0
 11
-277.1716399118
 21
-197.4028558238
 31
0.0
  0
LINE
  5
C3
330
1F
100
AcDbEntity
  8
0
  6
Continuous
 62
     7
370
    25
100
AcDbLine
 10
-477.171642892
 20
432.5971394078
 30
0.0
 11
-277.1716399118
 21
432.5971394078
 31
0.0
  0
LWPOLYLINE
  5
C4
330
1F
100
AcDbEntity
  8
0
  6
Continuous
 62
     7
370
    25
100
AcDbPolyline
 90
       44
 70
   128
 43
0.0
 10
-477.171642892
 20
244.0185039536
 10
-477.1545661613
 20
243.9772873418
 10
-477.0180044695
 20
243.6475842492
 10
-476.7450598999
 20
242.9886250989
 10
-476.3361124321
 20
242.0013635651
 10
-475.7917134091
 20
240.6870513455
 10
-475.1126153394
 20
239.0475659863
 10
-474.2997420951
 20
237.0851426617
 10
-473.3542038127
 20
234.8024039761
 10
-472.2772894427
 20
232.2025089757
 10
-471.0704741999
 20
229.2889743344
 10
-469.7354046627
 20
226.0658531682
 10
-468.2739062234
 20
222.5374668137
 10
-466.687968187
 20
218.7086730496
 10
-464.979766123
 20
214.5847170846
 10
-463.1516246125
 20
210.1712017552
 10
-461.2060470506
 20
205.4741471307
 10
-459.1456932947
 20
200.4999905125
 10
-456.9733647629
 20
195.2555566327
 10
-454.6920416876
 20
189.7479384438
 10
-452.3048309609
 20
183.9847057359
 10
-449.814995937
 20
177.9737263219
 10
-447.2259415313
 20
171.7231958405
 10
-444.5412067696
 20
165.2416675584
 10
-441.7644498869
 20
158.5379629628
 10
-438.8994632288
 20
151.6212909714
 10
-435.9501658007
 20
144.5010691182
 10
-432.9205846414
 20
137.1870129601
 10
-429.8148585483
 20
129.6891062752
 10
-426.6372269019
 20
122.0176308648
 10
-423.3920296654
 20
114.1830473439
 10
-420.0837036594
 20
106.196024944
 10
-416.7167639359
 20
98.0675011174
 10
-413.2958075031
 20
89.8085921304
 10
-409.8255133256
 20
81.4305632607
 10
-406.3106162473
 20
72.9448586003
 10
-402.7559200301
 20
64.3630414502
 10
-399.1662768647
 20
55.6968837277
 10
-395.5465929582
 20
46.9582020537
 10
-391.9018108397
 20
38.1589173571
 10
-388.2369093597
 20
29.3110697762
 10
-384.5568943768
 20
20.4267143504
 10
-380.8667913079
 20
11.5180253283
 10
-377.1716414019
 20
2.5971471564
  0
LWPOLYLINE
  5
C5
330
1F
100
AcDbEntity
  8
0
  6
Continuous
 62
     7
370
    25
100
AcDbPolyline
 90
       29
 70
   128
 43
0.0
 10
-377.1716414019
 20
2.5971471564
 10
-382.8805225901
 20
0.2324520842
 10
-388.5707819834
 20
-2.1245390876
 10
-394.2238615825
 20
-4.4661224588
 10
-399.8213188722
 20
-6.7846537336
 10
-405.3448962047
 20
-9.0726078256
 10
-410.7765799388
 20
-11.3224745496
 10
-416.0986525937
 20
-13.5269523366
 10
-421.2937524542
 20
-15.6788290246
 10
-426.3449331745
 20
-17.7711010679
 10
-431.235721521
 20
-19.7969288333
 10
-435.9501658007
 20
-21.7497111066
 10
-440.4728842899
 20
-23.6230850919
 10
-444.7891322895
 20
-25.4109413131
 10
-448.8848207518
 20
-27.1074236139
 10
-452.7465982362
 20
-28.7070334657
 10
-456.361865811
 20
-30.2045256599
 10
-459.7188292071
 20
-31.5950275167
 10
-462.8065435215
 20
-32.8739941819
 10
-465.6149355694
 20
-34.0372682317
 10
-468.1348411366
 20
-35.0810498698
 10
-470.3580422327
 20
-36.0019267305
 10
-472.2772894427
 20
-36.7969036802
 10
-473.886324279
 20
-37.4633879169
 10
-475.1798940822
 20
-37.9992038711
 10
-476.1537892744
 20
-38.4026081069
 10
-476.8048135563
 20
-38.672274421
 10
-477.1308584138
 20
-38.8073236449
 10
-477.171642892
 20
-38.8242066606
  0
LWPOLYLINE
  5
C6
330
1F
100
AcDbEntity
  8
0
  6
Continuous
 62
     7
370
    25
100
AcDbPolyline
 90
       54
 70
   128
 43
0.0
 10
-751.938229613
 20
235.9423726098
 10
-751.8140433356
 20
236.0665588872
 10
-751.4419315382
 20
236.4387004868
 10
-750.8231757208
 20
237.0574563042
 10
-749.9599514529
 20
237.9206507699
 10
-748.8553283736
 20
239.0253036515
 10
-747.5131509825
 20
240.3674810426
 10
-745.9381280466
 20
241.9425039784
 10
-744.1358027979
 20
243.7447994248
 10
-742.112523131
 20
245.7680790917
 10
-739.8753819987
 20
248.0052202241
 10
-737.432247214
 20
250.4483550088
 10
-734.7917018458
 20
253.0889301793
 10
-731.962984614
 20
255.917647411
 10
-728.9560494944
 20
258.9245527283
 10
-725.7815061137
 20
262.0991259114
 10
-722.4504409357
 20
265.4301910893
 10
-718.9745662733
 20
268.9060359494
 10
-715.366130881
 20
272.5145011441
 10
-711.6377709433
 20
276.2428610818
 10
-707.8025696799
 20
280.0780325429
 10
-703.8740573451
 20
284.00657468
 10
-699.8659728095
 20
288.0146294133
 10
-695.7924423739
 20
292.0881598489
 10
-691.6677413508
 20
296.212860872
 10
-687.5063834711
 20
300.3742485539
 10
-683.3229420706
 20
304.5576601521
 10
-679.1321692988
 20
308.7484627263
 10
-674.9487278983
 20
312.9318743245
 10
-670.7873700186
 20
317.0932322041
 10
-666.6626689955
 20
321.2179332272
 10
-662.58913856
 20
325.2914934651
 10
-658.5810540244
 20
329.2995481984
 10
-654.6525416895
 20
333.2280903355
 10
-650.8173404261
 20
337.063291599
 10
-647.0889804884
 20
340.7916217343
 10
-643.4805450961
 20
344.400086929
 10
-640.0046704337
 20
347.8759317891
 10
-636.6736052557
 20
351.206996967
 10
-633.499061875
 20
354.3815403477
 10
-630.4921267554
 20
357.3884754674
 10
-627.6634095236
 20
360.2171926991
 10
-625.0228641554
 20
362.8577380673
 10
-622.5797144696
 20
365.300872852
 10
-620.3425733372
 20
367.5380139844
 10
-618.3192936703
 20
369.5612936513
 10
-616.5169833228
 20
371.3636189
 10
-614.9419752881
 20
372.9386120335
 10
-613.599797897
 20
374.2808490292
 10
-612.4951599165
 20
375.3854423062
 10
-611.6319505497
 20
376.2486963765
 10
-611.0131947323
 20
376.8674521939
 10
-610.6410680338
 20
377.2395639912
 10
-610.5168817564
 20
377.3637204663
  0
LINE
  5
C7
330
1F
100
AcDbEntity
  8
0
  6
Continuous
 62
     7
370
    25
100
AcDbLine
 10
553.8913262314
 20
-550.5335875962
 30
0.0
 11
755.4938719026
 21
-899.719441651
 31
0.0
  0
LINE
  5
C8
330
1F
100
AcDbEntity
  8
0
  6
Continuous
 62
     7
370
    25
100
AcDbLine
 10
872.4002971742
 20
-702.2072923464
 30
0.0
 11
727.0964238282
 21
-450.5336019133
 31
0.0
  0
LINE
  5
C9
330
1F
100
AcDbEntity
  8
0
  6
Continuous
 62
     7
370
    25
100
AcDbLine
 10
955.4938784897
 20
-1036.2326801066
 30
0.0
 11
955.4938784897
 21
-521.8119725122
 31
0.0
  0
LINE
  5
CA
330
1F
100
AcDbEntity
  8
0
  6
Continuous
 62
     7
370
    25
100
AcDbLine
 10
755.4938692685
 20
-896.8404405192
 30
0.0
 11
755.4938692685
 21
-1036.2326801066
 31
0.0
  0
ELLIPSE
  5
CB
330
1F
100
AcDbEntity
  8
0
  6
Continuous
 62
     7
370
    25
100
AcDbEllipse
 10
855.4938738791
 20
-872.9245177295
 30
0.0
 11
99.63947603121767
 21
26.6983172046838
 31
0.0
210
0.0
220
0.0
230
1.0
 40
0.3177652438
 41
0.7004580896382465
 42
3.056652579830587
  0
ELLIPSE
  5
CC
330
1F
100
AcDbEntity
  8
0
  6
Continuous
 62
     7
370
    25
100
AcDbEllipse
 10
855.4938738791
 20
-872.9245177295
 30
0.0
 11
-64.4567985913036
 21
240.5560466245607
 31
0.0
210
0.0
220
0.0
230
1.0
 40
0.3178248929
 41
4.797329054143882
 42
5.412847070022957
  0
LWPOLYLINE
  5
CD
330
1F
100
AcDbEntity
  8
0
  6
Continuous
 62
     7
370
    25
100
AcDbPolyline
 90
      107
 70
   128
 43
0.0
 10
690.4938720668
 20
-471.6598397175
 10
686.2171141274
 20
-474.1287516682
 10
681.779749695
 20
-476.6904248429
 10
677.1973684935
 20
-479.3358593116
 10
672.4860660093
 20
-482.0557873938
 10
667.6623894903
 20
-484.8405466586
 10
662.7432859208
 20
-487.6805114804
 10
657.7460289233
 20
-490.5655633755
 10
652.6881700259
 20
-493.4856545005
 10
647.5874793938
 20
-496.4304890149
 10
642.4618694375
 20
-499.3897375284
 10
637.3293447638
 20
-502.3529929931
 10
632.2079521266
 20
-505.309860432
 10
627.1156434489
 20
-508.2499630286
 10
622.070323239
 20
-511.1629634098
 10
617.0897458568
 20
-514.0386107938
 10
612.1913600975
 20
-516.8668307342
 10
607.3923776805
 20
-519.6376612281
 10
602.7096836868
 20
-522.3414261045
 10
598.1596995824
 20
-524.968546437
 10
593.7583990228
 20
-527.5098720987
 10
589.5212815116
 20
-529.9564536212
 10
585.4631880078
 20
-532.2996486737
 10
581.5984115614
 20
-534.5313015187
 10
577.9404971158
 20
-536.6435179281
 10
574.502315265
 20
-538.6288902749
 10
571.2959147392
 20
-540.4804367066
 10
568.3325908938
 20
-542.1917076001
 10
565.6227118536
 20
-543.7566182794
 10
563.1758449532
 20
-545.1697410214
 10
561.0005512711
 20
-546.4260586823
 10
559.1044857288
 20
-547.5211745789
 10
557.4942917232
 20
-548.4512273307
 10
556.1756538106
 20
-549.213006443
 10
555.153160729
 20
-549.8037637313
 10
554.4304476441
 20
-550.2214718682
 10
554.0100433669
 20
-550.4646692659
 10
553.8933966953
 20
-550.5324448701
 10
554.0809449029
 20
-550.424617627
 10
554.5720399817
 20
-550.1415600694
 10
555.3649117642
 20
-549.6842196178
 10
556.4568101686
 20
-549.054255457
 10
557.8439077341
 20
-548.2538758124
 10
559.5213075238
 20
-547.2858577296
 10
561.4831221498
 20
-546.1536231214
 10
563.7224632366
 20
-544.8611475182
 10
566.2314598601
 20
-543.4129494317
 10
569.0013085973
 20
-541.814158797
 10
572.0222866973
 20
-540.0703633684
 10
575.2837797396
 20
-538.1877144304
 10
578.7743092933
 20
-536.1727648255
 10
582.481637626
 20
-534.0326518433
 10
586.3927459713
 20
-531.774890769
 10
590.4938779929
 20
-529.4073741268
 10
594.7706359322
 20
-526.9384378413
 10
599.207989828
 20
-524.3767342491
 10
603.7903710295
 20
-521.7312997804
 10
608.5016840503
 20
-519.0114264506
 10
613.3253500327
 20
-516.2266124334
 10
618.2444536022
 20
-513.3866962812
 10
623.2417211364
 20
-510.5016261341
 10
628.2995905704
 20
-507.5815654266
 10
633.4002812026
 20
-504.6367309122
 10
638.5258911589
 20
-501.6774823987
 10
643.6584052958
 20
-498.7142208512
 10
648.7797979331
 20
-495.7573290776
 10
653.8721066107
 20
-492.8172264809
 10
658.9174268206
 20
-489.9042504345
 10
663.8980042029
 20
-487.0285787157
 10
668.7963899621
 20
-484.2003587753
 10
673.5953723792
 20
-481.4295282814
 10
678.2780663729
 20
-478.725763405
 10
682.8280504773
 20
-476.0986187378
 10
687.2293510369
 20
-473.5573174109
 10
691.4664685481
 20
-471.1107358883
 10
695.5245620519
 20
-468.7675408358
 10
699.3893384983
 20
-466.5359123256
 10
703.0472529438
 20
-464.4236959163
 10
706.4854347947
 20
-462.4382992346
 10
709.6918353205
 20
-460.5867528029
 10
712.6551591658
 20
-458.8754819094
 10
715.3650382061
 20
-457.3105712301
 10
717.8119051065
 20
-455.897472823
 10
719.9871987885
 20
-454.641155162
 10
721.8832643309
 20
-453.5460149306
 10
723.4934583364
 20
-452.6159621788
 10
724.8120962491
 20
-451.8541830665
 10
725.8345893307
 20
-451.2634014434
 10
726.5573024155
 20
-450.8457176414
 10
726.9777066927
 20
-450.6025202436
 10
727.0943533643
 20
-450.5347446395
 10
726.9068051568
 20
-450.6425718825
 10
726.4157100779
 20
-450.9256537749
 10
725.6228382954
 20
-451.3829698918
 10
724.530939891
 20
-452.0129340525
 10
723.1438423255
 20
-452.813338032
 10
721.4664530725
 20
-453.7813621974
 10
719.5046384465
 20
-454.9135968056
 10
717.2652973598
 20
-456.2060724088
 10
714.7562901996
 20
-457.6542400778
 10
711.9864309256
 20
-459.2530489647
 10
708.9654528256
 20
-460.9967957236
 10
705.7039703201
 20
-462.8794994139
 10
702.2134302296
 20
-464.8943942666
 10
698.5061018969
 20
-467.0345072488
 10
694.5950040883
 20
-469.2922987406
 10
690.4938720668
 20
-471.6598397175
  0
LWPOLYLINE
  5
CE
330
1F
100
AcDbEntity
  8
0
  6
Continuous
 62
     7
370
    25
100
AcDbPolyline
 90
       97
 70
   128
 43
0.0
 10
681.3938722478
 20
-476.9148290535
 10
677.523297317
 20
-479.1492930012
 10
673.4941600152
 20
-481.475350189
 10
669.323706306
 20
-483.88297152
 10
665.0298051361
 20
-486.3619141233
 10
660.6308318728
 20
-488.9014966342
 10
656.1456156207
 20
-491.4909337911
 10
651.5934056359
 20
-494.1191003023
 10
646.993640835
 20
-496.7747247724
 10
642.3660538457
 20
-499.4464147776
 10
637.7304536869
 20
-502.1228066843
 10
633.1066783533
 20
-504.7923496728
 10
628.5145474004
 20
-507.4436981282
 10
623.9737065279
 20
-510.0654363578
 10
619.5036065065
 20
-512.6463584355
 10
615.1233951762
 20
-515.1753845486
 10
610.8518068113
 20
-517.6417708914
 10
606.7071647541
 20
-520.0348647879
 10
602.7071970227
 20
-522.3444545116
 10
598.8690468479
 20
-524.5606415245
 10
595.2091356954
 20
-526.6739439071
 10
591.7431316562
 20
-528.6752902678
 10
588.4859020311
 20
-530.5561444701
 10
585.4513710851
 20
-532.3084660872
 10
582.6525305844
 20
-533.9246799882
 10
580.1013976491
 20
-535.3979196863
 10
577.8088619712
 20
-536.7218965528
 10
575.7847543031
 20
-537.8908846018
 10
574.0377410906
 20
-538.8999030159
 10
572.5752928624
 20
-539.7446127197
 10
571.4037000359
 20
-540.4214532766
 10
570.5279517441
 20
-540.927469508
 10
569.9518095933
 20
-541.2605122579
 10
569.6777339058
 20
-541.4191349835
 10
569.70691533
 20
-541.4026971766
 10
570.0392063521
 20
-541.2112579162
 10
570.673202955
 20
-540.8456260592
 10
571.606186667
 20
-540.3073937107
 10
572.8341482693
 20
-539.5988008717
 10
574.3518510158
 20
-538.7229666224
 10
576.152775316
 20
-537.6835803881
 10
578.2292082965
 20
-536.4850935807
 10
580.5722701432
 20
-535.1326800612
 10
583.17194176
 20
-533.6320985059
 10
586.0170766225
 20
-531.9898072459
 10
589.0954732182
 20
-530.2128007739
 10
592.3939613152
 20
-528.3086816124
 10
595.8984441101
 20
-526.2856603215
 10
599.5938672751
 20
-524.1523300386
 10
603.4644527426
 20
-521.9178965084
 10
607.4935795077
 20
-519.5918575727
 10
611.6640437536
 20
-517.1842423244
 10
615.9579554603
 20
-514.7053058038
 10
620.3569181869
 20
-512.1656685405
 10
624.8421133655
 20
-509.576243553
 10
629.3943444238
 20
-506.9480892073
 10
633.9941092247
 20
-504.292489072
 10
638.6216962139
 20
-501.6207747319
 10
643.2572963727
 20
-498.9443828253
 10
647.8810717063
 20
-496.2748398367
 10
652.4732026593
 20
-493.6234913813
 10
657.0140435317
 20
-491.0017531518
 10
661.4841435532
 20
-488.4208310741
 10
665.8643548834
 20
-485.8917806261
 10
670.1359432484
 20
-483.4254429529
 10
674.2805853056
 20
-481.0323490564
 10
678.2805530369
 20
-478.7227593328
 10
682.1187032118
 20
-476.5065479851
 10
685.7786143643
 20
-474.3932699373
 10
689.2446184035
 20
-472.3918992418
 10
692.5018480286
 20
-470.5110450394
 10
695.5363789745
 20
-468.7587234223
 10
698.3351984018
 20
-467.1424973559
 10
700.8863524105
 20
-465.6692698232
 10
703.1788880884
 20
-464.3452929568
 10
705.2029957565
 20
-463.1763049077
 10
706.9500089691
 20
-462.1673108284
 10
708.4124571972
 20
-461.3225767898
 10
709.5840500238
 20
-460.6457605677
 10
710.4597983155
 20
-460.1397443364
 10
711.0359404663
 20
-459.8067015864
 10
711.3100161538
 20
-459.6480301912
 10
711.2808347296
 20
-459.664492333
 10
710.9485437076
 20
-459.8559315933
 10
710.3145471047
 20
-460.2215634503
 10
709.3815633926
 20
-460.7597957989
 10
708.1536017904
 20
-461.4683886378
 10
706.6358990438
 20
-462.3442228871
 10
704.8349747437
 20
-463.3836334563
 10
702.7585417632
 20
-464.5820959288
 10
700.415458843
 20
-465.9344972829
 10
697.8158082996
 20
-467.4350666688
 10
694.9706839738
 20
-469.0774126812
 10
691.8922768415
 20
-470.8544130705
 10
688.5937782077
 20
-472.7585261493
 10
685.0893059496
 20
-474.781529188
 10
681.3938722478
 20
-476.9148290535
  0
LWPOLYLINE
  5
CF
330
1F
100
AcDbEntity
  8
0
  6
Continuous
 62
     7
370
    25
100
AcDbPolyline
 90
      107
 70
   128
 43
0.0
 10
784.7831947067
 20
-1077.053086306
 10
780.7184354154
 20
-1074.5631689698
 10
776.9163293571
 20
-1071.9386134108
 10
773.390232473
 20
-1069.1886383628
 10
770.15252079
 20
-1066.3229065978
 10
767.2145785671
 20
-1063.3514815868
 10
764.5867199283
 20
-1060.2848005074
 10
762.2781737163
 20
-1057.1336350864
 10
760.2970558337
 20
-1053.9090513022
 10
758.6503152421
 20
-1050.6223842931
 10
757.3437418648
 20
-1047.2851699271
 10
756.3819270742
 20
-1043.9091341568
 10
755.7682452523
 20
-1040.5061337134
 10
755.5048537909
 20
-1037.0881196101
 10
755.5926772864
 20
-1033.6671036873
 10
756.031404906
 20
-1030.2551023472
 10
756.819503558
 20
-1026.864095496
 10
757.9541968186
 20
-1023.5059961299
 10
759.4314991767
 20
-1020.1926001529
 10
761.2462265697
 20
-1016.9355437977
 10
763.3920016528
 20
-1013.7462701708
 10
765.8612880424
 20
-1010.6359790702
 10
768.6454087563
 20
-1007.6155980924
 10
771.734592311
 20
-1004.6957377723
 10
775.1179812831
 20
-1001.8866501451
 10
778.7836942127
 20
-999.1982051751
 10
782.7188590242
 20
-996.639847132
 10
786.9096443073
 20
-994.2205582841
 10
791.3413306044
 20
-991.9488359933
 10
795.9983584844
 20
-989.8326649631
 10
800.86436822
 20
-987.8794760842
 10
805.9222626787
 20
-986.0961283778
 10
811.1542828908
 20
-984.4888897007
 10
816.5420488791
 20
-983.0634010103
 10
822.0666314401
 20
-981.824671422
 10
827.7086298527
 20
-980.7770515972
 10
833.4482219272
 20
-979.9242230988
 10
839.2652509334
 20
-979.2691786225
 10
845.1392835521
 20
-978.8142189548
 10
851.0496836328
 20
-978.5609468911
 10
856.9756991208
 20
-978.5102474662
 10
862.8965147414
 20
-978.6623001204
 10
868.7913231223
 20
-979.0165710953
 10
874.6394222583
 20
-979.5718149552
 10
880.4202734633
 20
-980.3260837108
 10
886.1135645906
 20
-981.2767268194
 10
891.6993127655
 20
-982.4204018292
 10
897.1578828251
 20
-983.7530971901
 10
902.4701058557
 20
-985.2701276914
 10
907.6173226573
 20
-986.9661656356
 10
912.581453549
 20
-988.8352568054
 10
917.3450661991
 20
-990.8708292082
 10
921.8914223818
 20
-993.0657383157
 10
926.2045530514
 20
-995.4122739072
 10
930.2693123427
 20
-997.9021912434
 10
934.071418401
 20
-1000.5267468024
 10
937.5975152851
 20
-1003.2767218505
 10
940.8352269681
 20
-1006.1424536154
 10
943.773169191
 20
-1009.1138786264
 10
946.4010278299
 20
-1012.1805597059
 10
948.7095740419
 20
-1015.3317251268
 10
950.6906919245
 20
-1018.556308911
 10
952.3374325161
 20
-1021.8429759201
 10
953.6440058933
 20
-1025.1801902862
 10
954.6058206839
 20
-1028.5562260564
 10
955.2195025059
 20
-1031.9592264998
 10
955.4828939673
 20
-1035.3772406031
 10
955.3950704717
 20
-1038.798256526
 10
954.9563428521
 20
-1042.210257866
 10
954.1682442002
 20
-1045.6012647172
 10
953.0335509395
 20
-1048.9593640833
 10
951.5562485814
 20
-1052.2727600603
 10
949.7415211884
 20
-1055.5298164155
 10
947.5957461054
 20
-1058.7190900424
 10
945.1264597157
 20
-1061.829381143
 10
942.3423390018
 20
-1064.8497621208
 10
939.2531554472
 20
-1067.7696224409
 10
935.869766475
 20
-1070.5787100682
 10
932.2040535454
 20
-1073.2671550381
 10
928.2688887339
 20
-1075.8255130813
 10
924.0781034509
 20
-1078.2448019292
 10
919.6464171538
 20
-1080.5165242199
 10
914.9893892738
 20
-1082.6326952502
 10
910.1233795381
 20
-1084.585884129
 10
905.0654850794
 20
-1086.3692318355
 10
899.8334648673
 20
-1087.9764705126
 10
894.4456988791
 20
-1089.4019592029
 10
888.921116318
 20
-1090.6406887913
 10
883.2791179054
 20
-1091.6883086161
 10
877.5395258309
 20
-1092.5411371144
 10
871.7224968248
 20
-1093.1961815908
 10
865.848464206
 20
-1093.6511412584
 10
859.9380641254
 20
-1093.9044133222
 10
854.0120486373
 20
-1093.955112747
 10
848.0912330168
 20
-1093.8030600929
 10
842.1964246359
 20
-1093.4487891179
 10
836.3483254998
 20
-1092.893545258
 10
830.5674742948
 20
-1092.1392765024
 10
824.8741831675
 20
-1091.1886333939
 10
819.2884349926
 20
-1090.044958384
 10
813.8298649331
 20
-1088.7122630231
 10
808.5176419024
 20
-1087.1952325218
 10
803.3704251008
 20
-1085.4991945777
 10
798.4062942091
 20
-1083.6301034078
 10
793.6426815591
 20
-1081.594531005
 10
789.0963253763
 20
-1079.3996218975
 10
784.7831947067
 20
-1077.053086306
  0
LWPOLYLINE
  5
D0
330
1F
100
AcDbEntity
  8
0
  6
Continuous
 62
     7
370
    25
100
AcDbPolyline
 90
       51
 70
   128
 43
0.0
 10
759.227110669
 20
-506.1855946948
 10
759.4314991767
 20
-505.7718925584
 10
761.2462265697
 20
-502.5148362032
 10
763.3920016528
 20
-499.3255625764
 10
765.8612880424
 20
-496.2152714758
 10
768.6454087563
 20
-493.1948904979
 10
771.734592311
 20
-490.2750301779
 10
775.1179812831
 20
-487.4659425506
 10
778.7836942127
 20
-484.7774975806
 10
782.7188590242
 20
-482.2191395375
 10
786.9096443073
 20
-479.7998506896
 10
791.3413306044
 20
-477.5281283989
 10
795.9983584844
 20
-475.4119573686
 10
800.86436822
 20
-473.4587684898
 10
805.9222626787
 20
-471.6754207833
 10
811.1542828908
 20
-470.0681821062
 10
816.5420488791
 20
-468.6426934158
 10
822.0666314401
 20
-467.4039638275
 10
827.7086298527
 20
-466.3563440027
 10
833.4482219272
 20
-465.5035155044
 10
839.2652509334
 20
-464.848471028
 10
845.1392835521
 20
-464.3935113603
 10
851.0496836328
 20
-464.1402392966
 10
856.9756991208
 20
-464.0895398718
 10
862.8965147414
 20
-464.2415925259
 10
868.7913231223
 20
-464.5958635008
 10
874.6394222583
 20
-465.1511073608
 10
880.4202734633
 20
-465.9053761164
 10
886.1135645906
 20
-466.8560192249
 10
891.6993127655
 20
-467.9996942347
 10
897.1578828251
 20
-469.3323895957
 10
902.4701058557
 20
-470.849420097
 10
907.6173226573
 20
-472.5454580411
 10
912.581453549
 20
-474.414549211
 10
917.3450661991
 20
-476.4501216138
 10
921.8914223818
 20
-478.6450307213
 10
926.2045530514
 20
-480.9915663128
 10
930.2693123427
 20
-483.4814836489
 10
934.071418401
 20
-486.106039208
 10
937.5975152851
 20
-488.856014256
 10
940.8352269681
 20
-491.721746021
 10
943.773169191
 20
-494.693171032
 10
946.4010278299
 20
-497.7598521114
 10
948.7095740419
 20
-500.9110175324
 10
950.6906919245
 20
-504.1356013165
 10
952.3374325161
 20
-507.4222683256
 10
953.6440058933
 20
-510.7594826917
 10
954.6058206839
 20
-514.135518462
 10
955.2195025059
 20
-517.5385189054
 10
955.4828939673
 20
-520.9565330087
 10
955.4938784897
 20
-521.8119725122
  0
LWPOLYLINE
  5
D1
330
1F
100
AcDbEntity
  8
0
  6
Continuous
 62
     7
370
    25
100
AcDbPolyline
 90
       97
 70
   128
 43
0.0
 10
797.6525399704
 20
-1069.6237714227
 10
793.9933789001
 20
-1067.368396332
 10
790.5975717541
 20
-1064.9796938434
 10
787.4796565611
 20
-1062.4678935619
 10
784.6529978233
 20
-1059.8437459249
 10
782.129680491
 20
-1057.1184974912
 10
779.9205257674
 20
-1054.3038088245
 10
778.0349890347
 20
-1051.4117381456
 10
776.4811400972
 20
-1048.454669101
 10
775.2656407912
 20
-1045.4452613401
 10
774.3936857158
 20
-1042.3964041346
 10
773.8690127696
 20
-1039.3211555519
 10
773.6938741748
 20
-1036.2326801066
 10
773.8690127696
 20
-1033.1442046613
 10
774.3936857158
 20
-1030.0689560786
 10
775.2656407912
 20
-1027.0200988732
 10
776.4811400972
 20
-1024.0106911122
 10
778.0349890347
 20
-1021.0536220676
 10
779.9205257674
 20
-1018.1615513888
 10
782.129680491
 20
-1015.346862722
 10
784.6529978233
 20
-1012.6216142883
 10
787.4796565611
 20
-1009.9974666513
 10
790.5975717541
 20
-1007.4856663698
 10
793.9933789001
 20
-1005.0969638812
 10
797.6525399704
 20
-1002.8415887905
 10
801.5593875327
 20
-1000.7292000681
 10
805.6971899466
 20
-998.7688423301
 10
810.0482270966
 20
-996.9689082019
 10
814.5938766611
 20
-995.3371128463
 10
819.3146569178
 20
-993.8804327566
 10
824.1903689897
 20
-992.6051148806
 10
829.200125162
 20
-991.5166176941
 10
834.3224740059
 20
-990.6195997961
 10
839.5354859893
 20
-989.9179069827
 10
844.8168338192
 20
-989.4145380321
 10
850.1438978089
 20
-989.1116507874
 10
855.4938738791
 20
-989.0105454287
 10
860.8438499492
 20
-989.1116507874
 10
866.1709139389
 20
-989.4145380321
 10
871.4522617688
 20
-989.9179069827
 10
876.6652737522
 20
-990.6195997961
 10
881.7876225961
 20
-991.5166176941
 10
886.7973787684
 20
-992.6051148806
 10
891.6730908403
 20
-993.8804327566
 10
896.393871097
 20
-995.3371128463
 10
900.9395206615
 20
-996.9689082019
 10
905.2905578115
 20
-998.7688423301
 10
909.4283602255
 20
-1000.7292000681
 10
913.3352077878
 20
-1002.8415887905
 10
916.9943688581
 20
-1005.0969638812
 10
920.390176004
 20
-1007.4856663698
 10
923.508091197
 20
-1009.9974666513
 10
926.3347499348
 20
-1012.6216142883
 10
928.8580672672
 20
-1015.346862722
 10
931.0672219907
 20
-1018.1615513888
 10
932.9527587235
 20
-1021.0536220676
 10
934.5066076609
 20
-1024.0106911122
 10
935.7221069669
 20
-1027.0200988732
 10
936.5940620423
 20
-1030.0689560786
 10
937.1187349886
 20
-1033.1442046613
 10
937.2938735834
 20
-1036.2326801066
 10
937.1187349886
 20
-1039.3211555519
 10
936.5940620423
 20
-1042.3964041346
 10
935.7221069669
 20
-1045.4452613401
 10
934.5066076609
 20
-1048.454669101
 10
932.9527587235
 20
-1051.4117381456
 10
931.0672219907
 20
-1054.3038088245
 10
928.8580672672
 20
-1057.1184974912
 10
926.3347499348
 20
-1059.8437459249
 10
923.508091197
 20
-1062.4678935619
 10
920.390176004
 20
-1064.9796938434
 10
916.9943688581
 20
-1067.368396332
 10
913.3352077878
 20
-1069.6237714227
 10
909.4283602255
 20
-1071.7361601452
 10
905.2905578115
 20
-1073.6965178831
 10
900.9395206615
 20
-1075.4964520114
 10
896.393871097
 20
-1077.128247367
 10
891.6730908403
 20
-1078.5849274566
 10
886.7973787684
 20
-1079.8602453326
 10
881.7876225961
 20
-1080.9487425191
 10
876.6652737522
 20
-1081.8457604172
 10
871.4522617688
 20
-1082.5474532306
 10
866.1709139389
 20
-1083.0508221811
 10
860.8438499492
 20
-1083.3537094258
 10
855.4938738791
 20
-1083.4548147845
 10
850.1438978089
 20
-1083.3537094258
 10
844.8168338192
 20
-1083.0508221811
 10
839.5354859893
 20
-1082.5474532306
 10
834.3224740059
 20
-1081.8457604172
 10
829.200125162
 20
-1080.9487425191
 10
824.1903689897
 20
-1079.8602453326
 10
819.3146569178
 20
-1078.5849274566
 10
814.5938766611
 20
-1077.128247367
 10
810.0482270966
 20
-1075.4964520114
 10
805.6971899466
 20
-1073.6965178831
 10
801.5593875327
 20
-1071.7361601452
 10
797.6525399704
 20
-1069.6237714227
  0
ENDSEC
  0
SECTION
  2
OBJECTS
  0
DICTIONARY
  5
C
330
0
100
AcDbDictionary
281
     1
  3
ACAD_GROUP
350
D
  3
ACAD_LAYOUT
350
1A
  3
ACAD_MLINESTYLE
350
17
  3
ACAD_PLOTSETTINGS
350
19
  3
ACAD_PLOTSTYLENAME
350
E
  3
ACAD_SCALELIST
350
47
  0
DICTIONARY
  5
D
102
{ACAD_REACTORS
330
C
102
}
330
C
100
AcDbDictionary
281
     1
  0
DICTIONARY
  5
1A
102
{ACAD_REACTORS
330
C
102
}
330
C
100
AcDbDictionary
281
     1
  3
Layout1
350
1E
  3
Layout2
350
26
  3
Model
350
22
  0
DICTIONARY
  5
17
102
{ACAD_REACTORS
330
C
102
}
330
C
100
AcDbDictionary
281
     1
  3
Standard
350
18
  0
DICTIONARY
  5
19
102
{ACAD_REACTORS
330
C
102
}
330
C
100
AcDbDictionary
281
     1
  0
ACDBDICTIONARYWDFLT
  5
E
102
{ACAD_REACTORS
330
C
102
}
330
C
100
AcDbDictionary
281
     1
  3
Normal
350
F
100
AcDbDictionaryWithDefault
340
F
  0
DICTIONARY
  5
47
102
{ACAD_REACTORS
330
C
102
}
330
C
100
AcDbDictionary
281
     1
  3
A0
350
48
  3
A1
350
49
  3
A2
350
4A
  3
A3
350
4B
  3
A4
350
4C
  3
A5
350
4D
  3
A6
350
4E
  3
A7
350
4F
  3
A8
350
50
  3
A9
350
51
  3
B0
350
52
  3
B1
350
53
  3
B2
350
54
  3
B3
350
55
  3
B4
350
56
  3
B5
350
57
  3
B6
350
58
  3
B7
350
59
  3
B8
350
5A
  3
B9
350
5B
  3
C0
350
5C
  3
C1
350
5D
  3
C2
350
5E
  3
C3
350
5F
  3
C4
350
60
  3
C5
350
61
  3
C6
350
62
  3
C7
350
63
  3
C8
350
64
  3
C9
350
65
  3
D0
350
66
  3
D1
350
67
  3
D2
350
68
  0
LAYOUT
  5
1E
102
{ACAD_REACTORS
330
1A
102
}
330
1A
100
AcDbPlotSettings
  1

  2
none_device
  4

  6

 40
0.0
 41
0.0
 42
0.0
 43
0.0
 44
0.0
 45
0.0
 46
0.0
 47
0.0
 48
0.0
 49
0.0
140
0.0
141
0.0
142
1.0
143
1.0
 70
   688
 72
     1
 73
     0
 74
     5
  7

 75
    16
147
1.0
148
0.0
149
0.0
100
AcDbLayout
  1
Layout1
 70
     1
 71
     1
 10
0.0
 20
0.0
 11
420.0
 21
297.0
 12
0.0
 22
0.0
 32
0.0
 14
1.0000000000E+20
 24
1.0000000000E+20
 34
1.0000000000E+20
 15
-1.0000000000E+20
 25
-1.0000000000E+20
 35
-1.0000000000E+20
146
0.0
 13
0.0
 23
0.0
 33
0.0
 16
1.0
 26
0.0
 36
0.0
 17
0.0
 27
1.0
 37
0.0
 76
     0
330
1B
  0
LAYOUT
  5
26
102
{ACAD_REACTORS
330
1A
102
}
330
1A
100
AcDbPlotSettings
  1

  2
none_device
  4

  6

 40
0.0
 41
0.0
 42
0.0
 43
0.0
 44
0.0
 45
0.0
 46
0.0
 47
0.0
 48
0.0
 49
0.0
140
0.0
141
0.0
142
1.0
143
1.0
 70
   688
 72
     1
 73
     0
 74
     5
  7

 75
    16
147
1.0
148
0.0
149
0.0
100
AcDbLayout
  1
Layout2
 70
     1
 71
     2
 10
0.0
 20
0.0
 11
0.0
 21
0.0
 12
0.0
 22
0.0
 32
0.0
 14
0.0
 24
0.0
 34
0.0
 15
0.0
 25
0.0
 35
0.0
146
0.0
 13
0.0
 23
0.0
 33
0.0
 16
1.0
 26
0.0
 36
0.0
 17
0.0
 27
1.0
 37
0.0
 76
     0
330
23
  0
LAYOUT
  5
22
102
{ACAD_REACTORS
330
1A
102
}
330
1A
100
AcDbPlotSettings
  1

  2
none_device
  4
Letter_(8.50_x_11.00_Inches)
  6

 40
6.35
 41
6.35
 42
6.35000508
 43
6.35000508
 44
215.9
 45
279.4
 46
0.0
 47
0.0
 48
0.0
 49
0.0
140
0.0
141
0.0
142
1.0
143
1.0
 70
  1712
 72
     1
 73
     0
 74
     0
  7

 75
     0
147
1.0
148
0.0
149
0.0
100
AcDbLayout
  1
Model
 70
     1
 71
     0
 10
0.0
 20
0.0
 11
279.4
 21
215.9
 12
0.0
 22
0.0
 32
0.0
 14
0.0
 24
0.0
 34
0.0
 15
279.4
 25
215.9
 35
0.0
146
0.0
 13
0.0
 23
0.0
 33
0.0
 16
1.0
 26
0.0
 36
0.0
 17
0.0
 27
1.0
 37
0.0
 76
     0
330
1F
331
29
  0
MLINESTYLE
  5
18
102
{ACAD_REACTORS
330
17
102
}
330
17
100
AcDbMlineStyle
  2
Standard
 70
     0
  3

 62
   256
 51
90.0
 52
90.0
 71
     2
 49
0.5
 62
   256
  6
BYLAYER
 49
-0.5
 62
   256
  6
BYLAYER
  0
ACDBPLACEHOLDER
  5
F
102
{ACAD_REACTORS
330
E
102
}
330
E
  0
SCALE
  5
48
102
{ACAD_REACTORS
330
47
102
}
330
47
100
AcDbScale
 70
     0
300
1:1
140
1.0
141
1.0
290
     1
  0
SCALE
  5
49
102
{ACAD_REACTORS
330
47
102
}
330
47
100
AcDbScale
 70
     0
300
1:2
140
1.0
141
2.0
290
     0
  0
SCALE
  5
4A
102
{ACAD_REACTORS
330
47
102
}
330
47
100
AcDbScale
 70
     0
300
1:4
140
1.0
141
4.0
290
     0
  0
SCALE
  5
4B
102
{ACAD_REACTORS
330
47
102
}
330
47
100
AcDbScale
 70
     0
300
1:5
140
1.0
141
5.0
290
     0
  0
SCALE
  5
4C
102
{ACAD_REACTORS
330
47
102
}
330
47
100
AcDbScale
 70
     0
300
1:8
140
1.0
141
8.0
290
     0
  0
SCALE
  5
4D
102
{ACAD_REACTORS
330
47
102
}
330
47
100
AcDbScale
 70
     0
300
1:10
140
1.0
141
10.0
290
     0
  0
SCALE
  5
4E
102
{ACAD_REACTORS
330
47
102
}
330
47
100
AcDbScale
 70
     0
300
1:16
140
1.0
141
16.0
290
     0
  0
SCALE
  5
4F
102
{ACAD_REACTORS
330
47
102
}
330
47
100
AcDbScale
 70
     0
300
1:20
140
1.0
141
20.0
290
     0
  0
SCALE
  5
50
102
{ACAD_REACTORS
330
47
102
}
330
47
100
AcDbScale
 70
     0
300
1:30
140
1.0
141
30.0
290
     0
  0
SCALE
  5
51
102
{ACAD_REACTORS
330
47
102
}
330
47
100
AcDbScale
 70
     0
300
1:40
140
1.0
141
40.0
290
     0
  0
SCALE
  5
52
102
{ACAD_REACTORS
330
47
102
}
330
47
100
AcDbScale
 70
     0
300
1:50
140
1.0
141
50.0
290
     0
  0
SCALE
  5
53
102
{ACAD_REACTORS
330
47
102
}
330
47
100
AcDbScale
 70
     0
300
1:100
140
1.0
141
100.0
290
     0
  0
SCALE
  5
54
102
{ACAD_REACTORS
330
47
102
}
330
47
100
AcDbScale
 70
     0
300
2:1
140
2.0
141
1.0
290
     0
  0
SCALE
  5
55
102
{ACAD_REACTORS
330
47
102
}
330
47
100
AcDbScale
 70
     0
300
4:1
140
4.0
141
1.0
290
     0
  0
SCALE
  5
56
102
{ACAD_REACTORS
330
47
102
}
330
47
100
AcDbScale
 70
     0
300
8:1
140
8.0
141
1.0
290
     0
  0
SCALE
  5
57
102
{ACAD_REACTORS
330
47
102
}
330
47
100
AcDbScale
 70
     0
300
10:1
140
10.0
141
1.0
290
     0
  0
SCALE
  5
58
102
{ACAD_REACTORS
330
47
102
}
330
47
100
AcDbScale
 70
     0
300
100:1
140
100.0
141
1.0
290
     0
  0
SCALE
  5
59
102
{ACAD_REACTORS
330
47
102
}
330
47
100
AcDbScale
 70
     0
300
1/128" = 1'-0"
140
0.0078125
141
12.0
290
     0
  0
SCALE
  5
5A
102
{ACAD_REACTORS
330
47
102
}
330
47
100
AcDbScale
 70
     0
300
1/64" = 1'-0"
140
0.015625
141
12.0
290
     0
  0
SCALE
  5
5B
102
{ACAD_REACTORS
330
47
102
}
330
47
100
AcDbScale
 70
     0
300
1/32" = 1'-0"
140
0.03125
141
12.0
290
     0
  0
SCALE
  5
5C
102
{ACAD_REACTORS
330
47
102
}
330
47
100
AcDbScale
 70
     0
300
1/16" = 1'-0"
140
0.0625
141
12.0
290
     0
  0
SCALE
  5
5D
102
{ACAD_REACTORS
330
47
102
}
330
47
100
AcDbScale
 70
     0
300
3/32" = 1'-0"
140
0.09375
141
12.0
290
     0
  0
SCALE
  5
5E
102
{ACAD_REACTORS
330
47
102
}
330
47
100
AcDbScale
 70
     0
300
1/8" = 1'-0"
140
0.125
141
12.0
290
     0
  0
SCALE
  5
5F
102
{ACAD_REACTORS
330
47
102
}
330
47
100
AcDbScale
 70
     0
300
3/16" = 1'-0"
140
0.1875
141
12.0
290
     0
  0
SCALE
  5
60
102
{ACAD_REACTORS
330
47
102
}
330
47
100
AcDbScale
 70
     0
300
1/4" = 1'-0"
140
0.25
141
12.0
290
     0
  0
SCALE
  5
61
102
{ACAD_REACTORS
330
47
102
}
330
47
100
AcDbScale
 70
     0
300
3/8" = 1'-0"
140
0.375
141
12.0
290
     0
  0
SCALE
  5
62
102
{ACAD_REACTORS
330
47
102
}
330
47
100
AcDbScale
 70
     0
300
1/2" = 1'-0"
140
0.5
141
12.0
290
     0
  0
SCALE
  5
63
102
{ACAD_REACTORS
330
47
102
}
330
47
100
AcDbScale
 70
     0
300
3/4" = 1'-0"
140
0.75
141
12.0
290
     0
  0
SCALE
  5
64
102
{ACAD_REACTORS
330
47
102
}
330
47
100
AcDbScale
 70
     0
300
1" = 1'-0"
140
1.0
141
12.0
290
     0
  0
SCALE
  5
65
102
{ACAD_REACTORS
330
47
102
}
330
47
100
AcDbScale
 70
     0
300
1-1/2" = 1'-0"
140
1.5
141
12.0
290
     0
  0
SCALE
  5
66
102
{ACAD_REACTORS
330
47
102
}
330
47
100
AcDbScale
 70
     0
300
3" = 1'-0"
140
3.0
141
12.0
290
     0
  0
SCALE
  5
67
102
{ACAD_REACTORS
330
47
102
}
330
47
100
AcDbScale
 70
     0
300
6" = 1'-0"
140
6.0
141
12.0
290
     0
  0
SCALE
  5
68
102
{ACAD_REACTORS
330
47
102
}
330
47
100
AcDbScale
 70
     0
300
1'-0" = 1'-0"
140
12.0
141
12.0
290
     0
  0
ENDSEC
  0
EOF
